Man Or Astro-Man - Inside The Atom Text Guitar Tab

Learn the song with the online tablature player
INSIDE THE ATOM - by Man...or Astro-man?
====== === ====   available on Project Infinity

G1

|---------------------------------------------------------------------|
|---------------------------------------------------------------------|
|---------------------------------------------------------------------|
|------------9-9-8-8\-------------------------------------------------|
|-9-9-8-8\--------------9-9-8-8/---3-3-3-5\---------------------------|
|---------------------------------------------------------------------|

G2

Starts song off with many palm muted Ds |0577XX|

G1

|---(0-0-0-0-0-0-0-0-0-0-0-0-0-0-0-0)0--0-----000--0-----------------|
|----3-3-3-3-3-3-3-3-3-3-3-3-3-3-3-3-3--3-----333--3-----------------|
|----2-2-2-2-3-3-3-3-3-3-3-3-3-3-3-3-2--2-----222--2-----------------|
|-00-0-0-0-0-0-0-0-0-3-3-3-3-3-3-3-3-0--0-----000--0-----------------|
|-00-0-0-0-0-0-0-0-0-----------------0--0-----000--0-----------------|
|-00--------------------------------------0----------0---------------|

G1

|---------------------------------------------------------------------|
|---------------------------------------------------------------------|
|---------------------------------------------------------------------|
|---------------------------------------------------------------------|
|-----------3--3-3------3-5-3-----------------------------------------|
|-1-1-1--1---------1--1-------0--0-0--/121212121212...----------------|

|------------------------------------1010101010101010101010-----------|
|------------------------------------1010101010101010101010-----------|
|------------------------------------1010101010101010101010-----------|
|---------------------------------------------------------------------|
|-----------3--3-3------3-5-3-----------------------------------------|
|-1-1-1--1---------1--1-------0--0-0----------------------------------|
                                     ^10th fret, not 1st and open.