Man Or Astro-Man - Invasion Of The Dragonmen Text Guitar Tab

Learn the song with the online tablature player
INVASION OF THE DRAGONMEN - by Man...or Astro-man?

|---------------------------------------------------------------------|
|---------------------------------------------------------------------|
|---------------------------------------------------------------------|
|---------------------------------------------------------------------|
|-----2---3-3-3-2-----2---3-3-3-2-----2---3-3-3-2-----2---3-3-3-2-----|
|-0-0---0---------0-0---0---------0-0---0---------0-0---0-------------|

|---------------------------------------------------------------------|
|---------------------------------------------------------------------|
|---------------------------------------------------------------------|
|-----2---3-3-3-2-----2---3-3-3-2-------------------------------------|
|-0-0---0---------0-0---0-------------2---3-3-3-2-----2---3-3-3-2-----|
|---------------------------------0-0---0---------0-0---0-------------|

|---------------------------------------------------------------------|
|---------------------------------------------------------------------|
|-5-5-5--5--7-7-7--7-----------5-5-5--5--7-7-7--7---------------------|
|-5-5-5--5--7-7-7--7-----------5-5-5--5--7-7-7--7---------------------|
|-3-3-3--3--5-5-5--5-----------3-3-3--3--5-5-5--5---------------------|
|--------------------0-0-3-5-----------------------0-0-3-0------------|

|--------------------------------------------------121212121212\------|
|--------------------------------------------------121212121212\------|
|-5-5-5--5--7-7-7--7-----------5-5-5--5--7-7-7--7--121212121212\------|
|-5-5-5--5--7-7-7--7-----------5-5-5--5--7-7-7--7---------------------|
|-3-3-3--3--5-5-5--5-----------3-3-3--3--5-5-5--5---------------------|
|--------------------0-0-3-5------------------------------------------|

repeat *1

|----------------------------------------------------------------------|
|-12-10-11hb(12---12-12-12-12-12-12-12-12-12-12-12-12-12)r10-8\--X-X-X-|
|----------------------------------------------------------------X-X-X-|
|----------------------------------------------------------------X-X-X-|
|----------------------------------------------------------------------|
|----------------------------------------------------------------------|

|-----------------------------------10----10-10-10-10-10---------------|
|-12-10-11hb(12---12-12-12-12-12-12----12-12-12-12-12-12)r10-8\--X-X-X-|
|----------------------------------------------------------------X-X-X-|
|----------------------------------------------------------------X-X-X-|
|----------------------------------------------------------------------|
|----------------------------------------------------------------------|

|---------------------------------------------------------------------|
|-----8---8---8--10fb-(12)-10-8-10-8------------------8---------------|
|-7-9---9---9------------------------9-7--9~~-9-7h9-9----9~~-9-9-7h9--|
|---------------------------------------------------------------------|
|---------------------------------------------------------------------|
|---------------------------------------------------------------------|

|---------------------------------------------------------------------|
|-8-------------------------------------------------------------------|
|---9-7\--------------------------------------------------------------|
|---------------------------------------------------------------------|
|---------------------------------------------------------------------|
|---------------------------------------------------------------------|