Man Or Astro-Man - King Of The Monsters Text Guitar Tab

Learn the song with the online tablature player
KING OF THE MONSTERS - by Man...or Astro-man? from the album

Main riff is E |022100|, D |X0023X|, A |X0222X|, and back to E.

|---------------------------0---------------------------------------|
|---------------------------0---------------------------------------|
|-3---3-XX5-XX3-XX2---2---2-1---------------------------------------|
|-3---3-XX5-XX3-XX2---2---2-2---------------------------------------|
|-1---1-XX3-XX1-XX0---0---0-2---------------------------------------|
|-----------------------3---0---------------------------------------|

|--------------------------------------------------------------------|
|--------------------------------------------------------------------|
|-X-4--4-4-4--4-4-4-4--------------------4--4-4-4--4-4-4-4-----------|
|-X-4--4-4-4--4-4-4-4-5-5-5-5-4-4-4-4-2--4--4-4-4--4-4-4-4-----------|
|-X-2--2-2-2--2-2-2-2--------------------2--2-2-2--2-2-2-2-3-3-3-2-2-|
|--------------------------------------------------------------------|

|-------------------------------------------------------------------|
|-------------------------------------------------------------------|
|--------4--4-4-4--4-4-4-4--------------------4--4-4-4--4-4-4-4-----|
|--------4--4-4-4--4-4-4-4-5-5-5-5-4-4-4-4-2--4--4-4-4--4-4-4-4-----|
|-2-2-0--2--2-2-2--2-2-2-2--------------------2--2-2-2--2-2-2-2-----|
|-------------------------------------------------------------------|

|-------------0-----------------------------------------------------|
|-------------0-----------------------------------------------------|
|-------------1-----------------------------------------------------|
|-------------2-----------------------------------------------------|
|-------------2-----------------------------------------------------|
|-3-3-3-2--2--0-----------------------------------------------------|