Man Or Astro-Man - Special Agent Conrad Uno Text Guitar Tab

Learn the song with the online tablature player
SPECIAL AGENT CONRAD UNO - by Man...or Astro-man?
======= ===== ====== ===   available on Project Infinity, Live
                           Transmissions from Uranus, and Your
                           Weight on the Moon.

[pick slide]

|-------------------------------------------------------------------|
|-------------------------------------------------------------------|
|-------------------------------------------------------------------|
|-------------------------------------------------------------------|
|-------------------------------------------------------------------|
|-0-3-0-6--6-6-6-6-6-5-3-0-3--5---0-3-0-6--6-6-6-6-6-5-3-0-3--12\\\-|
                                                  cracendo (sp?)^

|------------------------------------------------------------/12-0--|
|-------------------------------------------------------------------|
|-------------------------------------------------------------------|
|-------------------------------------------------------------------|
|-------------------------------------------------------------------|
|-0-3-0-6--6-6-6-6-6-5-3-0-3--5---0-3-0-6--6-6-6-6-6-5-3-0-3--------|

|-------------------------------------------------------------------|
|-------------------------------------------------------------------|
|-------------------------------------------------------------------|
|-------------------------------------------------------------------|
|-0-3-0-6--6-6-6-6-6-5-3-0-3--5---0-3-0-6--6-6-6-6-6-5-3-0-3--12\\\-|
|-------------------------------------------------------------------|

|-------------------------------------------------------------------|
|-------------------------------------------------------------------|
|-------------------------------------------------------------------|
|-------------------------------------------------------------------|
|-------------------------------------------------------------------|
|-0-3-0-6--6-6-6-6-6-5-3-0-3--5---0-3-0-6--6-6-6-6-6-5-3-0-3--12\\\-|

|-------------------------------------------------------------------|
|-------------------------------------------------------------------|
|-------------------------------------------------------------------|
|-------------------------------------------------------------------|
|-1-1-1-2-2-2-3-3-4-4-4-5-5-5-6-6-7-7-7-7-7-7-7-7....---------------|
|-------------------------------------------------------------------|

|-------------------------------/12-12-12-12-12-12------------------|
|-------------------------------/12-12-12-12-12-12------------------|
|-------------------------------/12-12-12-12-12-12------------------|
|-2--2-2--2-2-------------------------------------------------------|
|-------------0-2/3-2-0---------------------------------------------|
|-----------------------3-0--0--------------------------------------|

|-------------------------------/12-12-12-12-12-12------------------|
|-------------------------------/12-12-12-12-12-12------------------|
|-------------------------------/12-12-12-12-12-12------------------|
|-2--2-2--2-2-------------------------------------------------------|
|-------------0-2/3-2-0---------------------------------------------|
|-----------------------3-0--0--------------------------------------|

|------------------------------/5-5-5-5-5-5-------------------------|
|------------------------------/5-5-5-5-5-5-------------------------|
|-2--2-2--2-2------------------/5-5-5-5-5-5-------------------------|
|-------------0-2/3-2-0---------------------------------------------|
|-----------------------3-0--0--------------------------------------|
|-------------------------------------------------------------------|

|-------------------------------/12-12-12-12-12-12------------------|
|-------------------------------/12-12-12-12-12-12------------------|
|-------------------------------/12-12-12-12-12-12------------------|
|-2--2-2--2-2-------------------------------------------------------|
|-------------0-2/3-2-0---------------------------------------------|
|-----------------------3-0--0--------------------------------------|

|-6-6-6-6-6-6-6-6-----------------------------6-6-6-6-6-8-6-6-6-6-6-|
|-6-6-6-6-6-6-6-6-----------------------------6-6-6-6-6-8-6-6-6-6-6-|
|-7-7-7-7-7-7-7-7-----------------------------7-7-7-7-7-9-7-7-7-7-7-|
|-8-8-8-8-8-8-8-8-----2--2--2-2-2-2--2--2-2-2-8-8-8-8-8-108-8-8-8-8-|
|-8-8-8-8-8-8-8-8-...-2--2--2-2-2-2--2--2-2-2-8-8-8-8-8-108-8-8-8-8-|
|---------------------0--0--0-0-0-0--0--0-0-0-----------------------|

|-8-6-6-6-6-6-----8-6-6-6-6-6-6--------------------------------------|
|-8-6-6-6-6-6-----8-6-6-6-6-6-6--------------------------------------|
|-9-7-7-7-7-7-----9-7-7-7-7-7-7--------------------------------------|
|-108-8-8-8-8-----108-8-8-8-8-8-2--2-2-------------------------------|
|-108-8-8-8-8-...-108-8-8-8-8-8-2--2-2-------------------------------|
|-------------------------------0--0-0---1///2///3///...12///13///14-|//...

|-----------------------------------12///13///....24///...*---\\\-0-|
|-----------------------------------12///13///....24///...*---\\\-0-|
|-----------------------------------------------------------------0-|
|----------------15///16///17///...-------------------------------0-|
|-------------------------------------------------------------------|
|-17///18///19///---------------------------------------------------|

(Project Infinity has a Peter Gunn cover thrown in here)

|-------------------------------------------------------------------|
|-------------------------------------------------------------------|
|-8-8-8-8-8-8-8----5--5--5-5-5-5--5---------------------------------|
|-8-8-8-8-8-8-8----5--5--5-5-5-5--5---------------------------------|
|-6-6-6-6-6-6-6...-3--3--3-3-3-3--3---------------------------------|
|-------------------------------------------------------------------|

repeat *2

|-------------------------------------------------------------------|
|-------------------------------------------------------------------|
|-------------------------------------------------------------------|
|-------------------------------------------------------------------|
|-------------------------------------------------------------------|
|-1///...///9--3///...///12--5///...///20-20-20-20-20\--------------|