Man Or Astro-Man - Super Rocket Rumble Text Guitar Tab

Learn the song with the online tablature player
Part 1
e---7-----7----5----------------------------------------------------------------|
b---8-----7----5----------------------------------------------------------------|
g---9-----7----5----------------------------------------------------------------|
d-------------------44444444----------------------------------------------------|
a-------------------22222222----------------------------------------------------|
E-------------------------------------------------------------------------------|
Part 2
e-------------------------|----------------------------------------------------------|
b-------------------------|-----------------------5---5------------------------------|
g------------------4---4--|-----2-2-4-5-4-2-0-22----5---5---------------------4--4---|
d-2-2-4-5-4-2-0-22---5---5|---------------------------------2-2-4-5-4-2-0-2-2---5--5-|
a-------------------------|-x2-------------------------------------------------------|
E-------------------------|----------------------------------------------------------|
part 3
e-------------------------------------------------------------------------------|
b-------------------------------------------------------------------------------|
g-------------------------------------------------------------------------------|
d-555555---88888---999999----55555--88888--999999---444444----------------------|
a-333333---66666---777777----33333--66666--777777---222222----------------------|
E-------------------------------------------------------------------------------|
*Repeat parts 1 and 2

part 4
e------12\--------12\----------12\--------------------------------------------------|
b------12\--------12\----------12\--------------------------------------------------|
g------12\--------12\-----2----12\--------------------------------2-22-2-2-2--------|
d-2~---------2~-----------2-----------2--2-2-2--2---2--2-2-2-2----2-22-2-2-2-2-22-2-|
a-2~---------2~-----------0-----------2--2-2-2--2---2--2-2-2-2---------------2-22-2-|
E-0~---------0~-----------------------0---------------------------------------------|

e-------------------------------|
b-------------------------------|
g-------------------------------|
d--2~---------------------------|
a--2~---------------------------|
E--0~---------------------------|