Man Overboard - Dylans Song Text Guitar Tab

Learn the song with the online tablature player
Intro
eb|--------------------------------------------------------------------------------|
Bb|--------------------------------------------------------------------------------|
Gb|13-13-13--9--11--6-------13-13-13--9--11--6-4/6/9\6\4---------------------------|
Db|13-13-13--9--11--6-------13-13-13--9--11--6-4/6/9\6\4---------------------------|
Ab|11-11-11--7--9---4-------11-11-11--7--9---4-2/4/7\4\2---------------------------|
Eb|--------------------------------------------------------------------------------|

Verse
eb|--------------------------------------------------------------------------------|
Bb|--------------------------------------------------------------------------------|
Gb|13-13-13-9-9-9-11-11-11-6-6-6-------13-13-13-9-9-9-11-11-11-6-6-4/6/9\6\4-------|
Db|13-13-13-9-9-9-11-11-11-6-6-6-------13-13-13-9-9-9-11-11-11-6-6-4/6/9\6\4-------|
Ab|11-11-11-7-7-7-9--9--9--4-4-4-------11-11-11-7-7-7-9--9--9--4-4-2/4/7\4\2-------|
Eb|--------------------------------------------------------------------------------|

Chorus
eb|--------------------------------------------------------------------------------|
Bb|--------------------------------------------------------------------------------|
Gb|2--6--4-------------------------------------------------------------------------|
Db|2--6--4-------------------------------------------------------------------------|
Ab|0--4--2-------------------------------------------------------------------------|
Eb|--------------------------------------------------------------------------------|

I didn't type out the strumming pattern cause I'm lazy but its not difficult to figure out.

Outro
Final time has no slide.
eb|-------------------------------------------------------------------------|-------|
Bb|-------------------------------------------------------------------------|-------|
Gb|13-13-13-9-9-9-11-11-11-6-6-6-------13-13-13-9-9-9-11-11-11-6-6-4/6/9\6\4|-4(x4)-|
Db|13-13-13-9-9-9-11-11-11-6-6-6-------13-13-13-9-9-9-11-11-11-6-6-4/6/9\6\4|-4-----|
Ab|11-11-11-7-7-7-9--9--9--4-4-4-------11-11-11-7-7-7-9--9--9--4-4-2/4/7\4\2|-2-----|
Eb|-------------------------------------------------------------------------|-------|