Man Overboard - Fm Dial Style Text Guitar Tab

Learn song with the online tabulature player
e|--------------------------------------------------------------------------|
B|--11-9-11-9---------------------------------------------------------------|
G|---------------10-8-10-8--------------------------------------------------|
D|---------------------------------------------------6----------------------|
A|----------------------------8--8-6-8--8-6-8--8-6-8---8-6------------------|
E|--------------------------------------------------------------------------|


e|----------9---------------------------------------------9-11-11b13-9------|
B|--11-9-11---------------9--------------------------9-11--------------11---|
G|----------------10-8-10---10-8--------------------------------------------|
D|-------------------------------11-----------------------------------------|
A|------------------------------------8--8-6-8--8-6-------------------------|
E|--------------------------------------------------------------------------|

@vitrso