Man Raze - Turn It Up Text Guitar Tab

Learn song with the online tabulature player
A great song that I guess isn't wide known so to speak. I played along with the song and 
sounds just about right.

Tuning: Standard (E A D G B E)

     C      G      F
E |------|------|------|
B |------|------|------|
G |--5---|------|------|
D |--5---|--5---|--3---|
A |--3---|--5---|--3---|
E |------|--3---|--1---|


Play the chords like this (and improvise a little ;) )

Cx4 Gx3 Fx1

Solo/Stick:

E |--------------------|
B |--------------------|
G |--12--14--12--14--12|
D |--------------------|
A |--------------------|
E |--------------------|

(Bend 12)


Visit Man Raze official website: http://www.manraze.com