Mana - Arrancame El Corazn Text Guitar Tab

Learn the song with the online tablature player
Una de las mejores rolas del nuevo disco...
Les recomiendo escuchen la canción para sacar bien los tiempos
y los ritmos q son muy sencillos...

Introducción:
e|-------------------------------------------------------------|
B|-------------------------------------------------------------|
G|-10-10-10-10-10-10-10-10-9-9-9-9-9-9-9-9-7-7-7-7-7-7-7-7-----|
D|-10-10-10-10-10-10-10-10-9-9-9-9-9-9-9-9-7-7-7-7-7-7-7-7-----|
A|-8--8--8--8--8--8--8--8--7-7-7-7-7-7-7-7-5-5-5-5-5-5-5-5-----|
E|-------------------------------------------------------------|

e|------------|
B|------------|
G|-3-5-5------|
D|-3-5-5------|
A|-1-3-3------|
E|------------|

La primera guitarra sigue tocando lo de arriba mientras entra una
segunda con un requintillo de fondo q va así:

e|-------|---------|-------|----------|
B|-------|-------8-|-------|-------6--|
G|-----9-|-9-9-7---|-----9-|-9-9-5----|    Se toca
D|-7-7---|---------|-7-7---|----------|    2 veces
A|-------|---------|-------|----------|
E|-------|---------|-------|----------|

<

 >
Las 2 guitarras (con Palm Mute):
e|--------------------------------------------------------------|
B|--------------------------------------------------------------|
G|-10-10-10-10-10-10-10-10-9-9-9-9-9-9-9-9-7-7-7-7-7-7-7-7--7-7-|
D|-10-10-10-10-10-10-10-10-9-9-9-9-9-9-9-9-7-7-7-7-7-7-7-7--7-7-|
A|-8--8--8--8--8--8--8--8--7-7-7-7-7-7-7-7-5-5-5-5-5-5-5-5--5-5-|
E|--------------------------------------------------------------|
Yo, sigo solo,

e|--------------------------------------------------------------|
B|--------------------------------------------------------------|
G|-10-10-10-10-10-10-10-10-9-9-9-9-9-9-9-9-7-7-7-7-7-7-7-7--7-7-|
D|-10-10-10-10-10-10-10-10-9-9-9-9-9-9-9-9-7-7-7-7-7-7-7-7--7-7-|
A|-8--8--8--8--8--8--8--8--7-7-7-7-7-7-7-7-5-5-5-5-5-5-5-5--5-5-|
E|--------------------------------------------------------------|
Aquí en mi habitación, sólo,

Aquí empieza otra vez la 2ª Guitarra
con el requintillo de fondo ya tabeado arriba

e|--------------------------------------------------------------|
B|--------------------------------------------------------------|
G|-10-10-10-10-10-10-10-10-9-9-9-9-9-9-9-9-7-7-7-7-7-7-7-7--7-7-|
D|-10-10-10-10-10-10-10-10-9-9-9-9-9-9-9-9-7-7-7-7-7-7-7-7--7-7-|
A|-8--8--8--8--8--8--8--8--7-7-7-7-7-7-7-7-5-5-5-5-5-5-5-5--5-5-|
E|--------------------------------------------------------------|
Ya, anunciaste,

e|--------------------------------------------------------------|
B|--------------------------------------------------------------|
G|-10-10-10-10-10-10-10-10-9-9-9-9-9-9-9-9-7-7-7-7-7-7-7-7--7-7-|
D|-10-10-10-10-10-10-10-10-9-9-9-9-9-9-9-9-7-7-7-7-7-7-7-7--7-7-|
A|-8--8--8--8--8--8--8--8--7-7-7-7-7-7-7-7-5-5-5-5-5-5-5-5--5-5-|
E|--------------------------------------------------------------|
Que te vas a marchar, de mi lado.

<
 
  >
Guitarra 2:
e|-----8--|
B|---6----|
G|-7------|
D|--------|
A|--------|
E|--------|

Guitarra 1:
e|------------------|
B|------------------|
G|-8-8-8-8-8-8-8-8--|
D|-8-8-8-8-8-8-8-8--|
A|-6-6-6-6-6-6-6-6--|
E|------------------|
Silencio del teléfono,

Guitarra 2:
e|-----8--|
B|---6----|
G|-8------|
D|--------|
A|--------|
E|--------|

Guitarra 1:
e|------------------|
B|------------------|
G|-7-7-7-7-7-7-7-7--|
D|-7-7-7-7-7-7-7-7--|
A|-5-5-5-5-5-5-5-5--|
E|------------------|
Lo lanzo a la pared,

Guitarra 2:
e|-----8--|
B|---6----|
G|-7------|
D|--------|
A|--------|
E|--------|

Guitarra 1:
e|------------------|
B|------------------|
G|-8-8-8-8-8-8-8-8--|
D|-8-8-8-8-8-8-8-8--|
A|-6-6-6-6-6-6-6-6--|
E|------------------|
No puedo más, prefiero ya,

Guitarra 2:
e|-----8--|
B|---6----|
G|-8------|
D|--------|
A|--------|
E|--------|

Guitarra 1:
e|----------------------|
B|----------------------|
G|-10-10-10-10-7-7-7-7--|
D|-10-10-10-10-7-7-7-7--|
A|-8--8--8--8--5-5-5-5--|
E|----------------------|
Si tú te vas, te pido.

<
  
   >
Guitarra 2:
e|------------|
B|---------6--|
G|-------9----|
D|-7-7-7------|
A|------------|
E|------------|

Guitarra 1:
e|--------------------------------------------------------------|
B|--------------------------------------------------------------|
G|-7-7-7-7-7-7-7-7-3-3-3-3-3-3-3-3-5-5-5-5-5-5-5-5---10-10-9-9--|
D|-7-7-7-7-7-7-7-7-3-3-3-3-3-3-3-3-5-5-5-5-5-5-5-5---10-10-9-9--|
A|-5-5-5-5-5-5-5-5-1-1-1-1-1-1-1-1-3-3-3-3-3-3-3-3---8--8--7-7--|
E|--------------------------------------------------------------|
Arrá[N.C.]ame el corazón, si tú te vas,

Guitarra 2:
e|------------|
B|---------6--|
G|-------9----|
D|-7-7-7------|
A|------------|
E|------------|

Guitarra 1:
e|--------------------------------------------------------------|
B|--------------------------------------------------------------|
G|-7-7-7-7-7-7-7-7-3-3-3-3-3-3-3-3-5-5-5-5-5-5-5-5---10-10-9-9--|
D|-7-7-7-7-7-7-7-7-3-3-3-3-3-3-3-3-5-5-5-5-5-5-5-5---10-10-9-9--|
A|-5-5-5-5-5-5-5-5-1-1-1-1-1-1-1-1-3-3-3-3-3-3-3-3---8--8--7-7--|
E|--------------------------------------------------------------|
Arrá[N.C.]ame el corazón, Te pido amor,

Guitarra 2:
e|------------|
B|---------6--|
G|-------9----|
D|-7-7-7------|
A|------------|
E|------------|

Guitarra 1:
e|--------------------------------------------------------------|
B|--------------------------------------------------------------|
G|-7-7-7-7-7-7-7-7-3-3-3-3-3-3-3-3-5-5-5-5-5-5-5-5---10-10-9-9--|
D|-7-7-7-7-7-7-7-7-3-3-3-3-3-3-3-3-5-5-5-5-5-5-5-5---10-10-9-9--|
A|-5-5-5-5-5-5-5-5-1-1-1-1-1-1-1-1-3-3-3-3-3-3-3-3---8--8--7-7--|
E|--------------------------------------------------------------|
Arrá[N.C.]ame la vida, Te pido amor,

Guitarra 2:
e|------------|
B|---------6--|
G|-------9----|
D|-7-7-7------|
A|------------|
E|------------|

Guitarra 1:
e|--------------------------------------------------------------|
B|--------------------------------------------------------------|
G|-7-7-7-7-7-7-7-7-3-3-3-3-3-3-3-3-5-5-5-5-5-5-5-5---10-10-9-9--|
D|-7-7-7-7-7-7-7-7-3-3-3-3-3-3-3-3-5-5-5-5-5-5-5-5---10-10-9-9--|
A|-5-5-5-5-5-5-5-5-1-1-1-1-1-1-1-1-3-3-3-3-3-3-3-3---8--8--7-7--|
E|--------------------------------------------------------------|
Arrá[N.C.]ame el corazón.

Lo siguiente se toca igual q lo de arriba según está señalado:

<
   
    >
Amor mío,
Que es lo que te pasa,
Dime si hay alguien en medio, entre tú y yo,
Cuéntame todo, yo lo entenderé,
Y si te vas por favor arrá[N.C.]ame la vida.

<
    
     >
Silencio del teléfono,
Lo lanzo a la pared,
No puedo más,
Prefiero ya, si tú te vas
Te pido.

<
     
      >
Arrá[N.C.]ame el corazón,
Si tú te vas, arrá[N.C.]ame el corazón
Te pido amor, arrá[N.C.]ame la vida
Te pido amor, arrá[N.C.]ame el corazón,
Te pido amor.

Guitarra 2:
e|-------------------------------------------------|
B|-------------------------------------------------|
G|-7-7-7-7-7-7-7-7-7-7-7-7-9-9-9-9-9-9-9-9-9-9-9-9-|
D|-------------------------------------------------|
A|-------------------------------------------------|
E|-------------------------------------------------|

e|------------------------------------------------------|
B|------------------------------------------------------|
G|10-10-10-10-10-10-10-10-10-10-10-10-12-12-12-12-12-12-|
D|------------------------------------------------------|
A|------------------------------------------------------|
E|------------------------------------------------------|

e|-------------|
B|-------------|
G|-12-12-14-14-|
D|-------------|
A|-------------|
E|-------------|

Guitarra 1:
e|----------------------------------------------------|
B|----------------------------------------------------|
G|-3---------------2-------------3-------------5------|
D|-3---------------2-------------3-------------5------|
A|-1---------------0-------------1-------------3------|
E|----------------------------------------------------|

Aquí el rasgueo si es sobre la silaba q se señala
(solo 1 rasgueo):
e|--------------------------------------------------------------|
B|--------------------------------------------------------------|
G|-3------------------5---------2-----------7-------7-7-7-5-5-5-|
D|-3------------------5---------2-----------7-------7-7-7-5-5-5-|
A|-1------------------3---------0-----------5-------5-5-5-3-3-3-|
E|--------------------------------------------------------------|
       Y sigo esperando, Que regreses, a mi lado,

e|-----------------------------------------------------------|
B|-----------------------------------------------------------|
G|-3--------------------------------5------------2---------5-|
D|-3--------------------------------5------------2---------5-|
A|-1--------------------------------3------------0---------3-|
E|-----------------------------------------------------------|
       Se que pronto entraras en la cuenta, Volverás, a mi lado.

e|----------------|
B|----------------|
G|-3-3-3-5-5-5----|
D|-3-3-3-5-5-5----|
A|-1-1-1-3-3-3----|
E|----------------|

El solo se acompaña con lo siguiente:
e|------------------------------------------------|
B|------------------------------------------------|
G|-7-7-7-7-7-7-3-3-3-3-3-3-5-5-5-5-5-5-10-10-9-9--|  Se toca
D|-7-7-7-7-7-7-3-3-3-3-3-3-5-5-5-5-5-5-10-10-9-9--|  2 veces
A|-5-5-5-5-5-5-1-1-1-1-1-1-3-3-3-3-3-3-8--8--7-7--|
E|------------------------------------------------|

<
      
       >
Arrá[N.C.]ame el corazón, si tú te vas,
Arrá[N.C.]ame el corazón, te pido amor,
Arrá[N.C.]ame la vida, te pido amor,
Arrá[N.C.]ame el corazón, te pido amor,

e|---------------------------------------------------|
B|---------------------------------------------------|
G|-7-7-7-7-7-7-3-3-3-3-3-3-5-5-5-5-5-5---10-10-9-9---|
D|-7-7-7-7-7-7-3-3-3-3-3-3-5-5-5-5-5-5---10-10-9-9---|
A|-5-5-5-5-5-5-1-1-1-1-1-1-3-3-3-3-3-3---8--8--7-7---|
E|---------------------------------------------------|
                                            Te pido amor.

e|--------------------------------------------------|
B|--------------------------------------------------|
G|-7-7-7-7-7-7-3-3-3-3-3-3-5-5-5-5-5-5---10-10-9-9--|
D|-7-7-7-7-7-7-3-3-3-3-3-3-5-5-5-5-5-5---10-10-9-9--|
A|-5-5-5-5-5-5-1-1-1-1-1-1-3-3-3-3-3-3---8--8--7-7--|
E|--------------------------------------------------|

e|----------------------------------------------------|
B|----------------------------------------------------|
G|-----3-3-3-3-3-3-3-5-5-5-5-5-5-2-2-2-2-2-2-7-7-5-5--|
D|-----3-3-3-3-3-3-3-5-5-5-5-5-5-2-2-2-2-2-2-7-7-5-5--|
A|-----1-1-1-1-1-1-1-3-3-3-3-3-3-0-0-0-0-0-0-5-5-3-3--|
E|----------------------------------------------------|
  Volverás               lo se mi amor,

e|---------------------------------------------------|
B|---------------------------------------------------|
G|-----3-3-3-3-3-3-3-5-5-5-5-5-5-2-2-2-2-2-2-7-7-5-5-|
D|-----3-3-3-3-3-3-3-5-5-5-5-5-5-2-2-2-2-2-2-7-7-5-5-|
A|-----1-1-1-1-1-1-1-3-3-3-3-3-3-0-0-0-0-0-0-5-5-3-3-|
E|---------------------------------------------------|
  Volverás               lo se mi amor,

e|----------------------------------------------------|
B|----------------------------------------------------|
G|-----3-3-3-3-3-3-3-5-5-5-5-5-5-2-2-2-2-2-2-7-7-5-5--|
D|-----3-3-3-3-3-3-3-5-5-5-5-5-5-2-2-2-2-2-2-7-7-5-5--|
A|-----1-1-1-1-1-1-1-3-3-3-3-3-3-0-0-0-0-0-0-5-5-3-3--|
E|----------------------------------------------------|
  Volverás               lo se mi amor,
                                                  *Se deja sonar*
e|----------------------------------------------------*-------|
B|----------------------------------------------------*-------|
G|-----3-3-3-3-3-3-3-5-5-5-5-5-5-2-2-2-2-2-2-7-7-5-5--*---3---|
D|-----3-3-3-3-3-3-3-5-5-5-5-5-5-2-2-2-2-2-2-7-7-5-5--*---3---|
A|-----1-1-1-1-1-1-1-3-3-3-3-3-3-0-0-0-0-0-0-5-5-3-3--*---1---|
E|----------------------------------------------------*-------|
  Y sabrás,              lo que es amor.

Tab By Martín Mar ^.-
Ojala y les guste y sirva...