Mana - Ayando El Sol Text Guitar Tab

Learn song with the online tabulature player
Rayando el sol-Mana
HOLA soy erik  no hablo ingles jaja
bueno es el verdadero intro
pruebenlo en guitarra electrica
y saldra igualito

si tienen dudas
hablen me erik_albert01996@hotmail.com
e|--------------------------------------------------------------------------|
b|----------3------------3-------------3---------------3--------------------|
G|-------------4-5-----2----4-5------0------4-5------0----4-5---------------|
D|-------0-----------0------------2----------------2------------------------|
A|----0------------0------------0----------------3--------------------------|
E|--2-----------------------------------------------------------------------|

e|------------------------------------------------------------3-------------|
B|-----------3-------------3-----------3----------3-------------------------|
G|---------------4-5-----4----4-5---0----4-5----2---4-5---2/4---------------|
D|-------0-------------4----------2----------0------------------------------|
A|----0--------------2-----------3----------0-------------------------------|
E|--2-----------------------------------------------------------------------|