Manatee - Moment One Text Guitar Tab

Learn the song with the online tablature player
"I fall down, i break down...."
e|------------------------------------|
B|------------------------------------|
G|-6--6--------------9--9-------------|
D|-6--6---7--7-7-7---9--9---9--9-9-9--| repeat 4 x
A|-4--4---7--7-7-7---7--7---9--9-9-9--|
E|--------5--5-5-5----------7--7-7-7--|

e|---------------------------------|
B|---------------------------------|
G|---------------------------------|
D|9-9-9-9-9-9-9-9-9-9-9-9----------|
A|9-9-9-9-9-9-9-9-9-9-9-9----------|
E|7-7-7-7-7-7-7-7-7-7-7-7----------|

"I let it go....."
e|---------------|
B|---------------|
G|9--7-----------|
D|9--7--9-9-7----| repeat 4 x
A|7--5--9-9-7----|
E|------7-7-5----|e|------------------|
B|------------------|
G|-6-------9--------|
D|-6---7---9---9----|
A|-4---7---7---9----|
E|-----5-------7----|

e|-----------|
B|-----------|
G|-6---9-----|
D|-6-7-9-----|
A|-4-7-7-----|
E|---5-------|"I fall down, i break down...."
e|------------------------------------|
B|------------------------------------|
G|-6--6--------------9--9-------------|
D|-6--6---7--7-7-7---9--9---9--9-9-9--| repeat 4 x
A|-4--4---7--7-7-7---7--7---9--9-9-9--|
E|--------5--5-5-5----------7--7-7-7--|

"I let it go....."
e|---------------|
B|---------------|
G|9--7-----------|
D|9--7--9-9-7----| repeat 4 x
A|7--5--9-9-7----|
E|------7-7-5----|