Mance Lipscomb - Cocaine Done Killed My Baby Text Guitar Tab

Learn the song with the online tablature player
Heres just the basis of the version that i have and i know theres a good few, if you can
this well the it
shouldnt be to hard to figure out the rest of the song using the chord structure and
messin around. If you
play this music much it shouldnt be to hard, thanks.

       C                           C

e|----0------------|--3--3----3----3/5--3----0-----------|
B|-1-----1---------|------------------------------3------|
G|----------0------|-------------------------------------|
D|----2------------|-----2------2---------2----------2---|
A|-3-----3---------|--3-----3------3/5---------3---------|
E|----------3------|-------------------------------------|
                      Cocaine   done killed my baby

             F

e|--------------------------------------|
B|--1--1--------1-----1-----------------|
G|---------2---------------2------------|
D|-----3-----3-----2----------3---------|
A|--------------------------------------|
E|--1----1------1-------1---------------|
cocaine try to run me crazy

            G                                          C

e|--3--3-----3-----1-----------0--------|------------------0--------------|
B|-----------------------3-----------1--|-------0h1-----------------------|
G|--------------------------------------|------------0--------------------|
D|-----0--------0-----0-----------0-----|----2----------2---------2-----2-|
A|--------------------------------------|-3-------3-----------3------3----|
E|--3-----3--------3--------3-----------|---------------------------------|
   Cocaine gonna kill you after a while...

| /  slide up
| \  slide down
| h  hammer-on
| p  pull-off
| ~  vibrato
| +  harmonic
| x  Mute note