Manchester Orchestra - Sleeper 1972 Acoustic Text Guitar Tab

Learn the song with the online tablature player
sleeper 1972 acoustic - manchester orchestra

Andy played this song acoustic on a radio show.

|------------------------------------|
|------------------------------------|
|------------------------------------| x2
|-----0---0---0---0---0---0---0---0--|
|-0h2---2---0---0--------------------|
|-------------------3---3---3---3----|

|-------------------------------------|
|-------------------------------------|
|-------------------------------------|
|---0---0---0---0---0---0---0---0-----|
|-2---2---4---4---5---5---5---5-------|
|-------------------------------------|
      "when my dad died.."

|-------------------------------------|
|-------------------------------------|
|-------------------------------------|  x2
|----0----0---0---0---0---0---0---0---|
|-10---10---9---9---7---7---7---7-----|
|-------------------------------------|
  "the worms ate out both his eyes..."

|-------------------------------------|
|-------------------------------------|
|-------------------------------------|
|----0----0---0---0---0---0---0---0---|
|-10---10---9---9---7---7---9---7-----|
|-------------------------------------|
"his spirit flew right up in the sky, and i cried my self to sleep"

thats for the first few verses then at the end

|------------------------------------|
|------------------------------------|
|------------------------------------|
|-----0---0---0---0---0---0---0---0--| x3?
|-0h2---2---0---0--------------------|
|-------------------3---3---3---3----|

|------------------------------------|
|------------------------------------|
|------------------------------------|
|---0---0---0---0----0---0---0---0---|
|------------------0---0---0---0-----|
|-3---3---3---3----------------------|