Mandatory Death - Clashing Of The Swords Text Guitar Tab

Learn the song with the online tablature player
Mandatory Death - Clashing Of The Swords

This Is a local Metal Band From Winnipeg.
I know the guitarist and my Guitar teacher
Produced and recorded the album in his
home studio.

Intro
Guitar 1)
[----------------------------/-----------------------------]
[----------------------------/-----------------------------]
[----------------------8--4--/----------------------7--3---]
[----------------------8--4--/----------------------7--3---]
[----------------------6--2--/----------------------5--1---]
[-000000000000---------------/-000000000000----------------]
  ............                 ............

Intro
Guitar 2)
[---------------------------/------------------------------------]
[---------------------------/------------------------------------]
[------------------3--------/------------------------------------]
[--------------------4------/------------------------7----6-5----]
[---------------------------/----------------------8-------------]
[-000000000000------------- /-000000000000-----------------------]
  ............                ............

                3rd time      (Guitars 1+2)
[-----------------------------/--------------------------------4-7-]
[-----------------------------/------------------------------6-----]
[-----------------------------/--------------------------4-7-------]
[---------------------3--6---/----------------------3-6------------]
[---------------------3--6---/--------------------5----------------]
[-000000000000--------1--4---/-000000000000------------------------]
  ............                 ............

        4th Time       (Guitars 1+2)
[----------------------------/--------------------7-4--------------]
[----------------------------/------------------------6------------]
[----------------------------/--------------------------7-4--------]
[---------------------6-3---/------------------------------8-6-----]
[---------------------6-3---/-----------------------------------7--]
[-000000000000--------4-1---/-000000000000-------------------------]
  ............                ............

        Guitar Fill Part 1  (Guitars 1+2)  2x
[----------------------/                /------------------]
[---------------------/                 /------------------]
[--------------------/  Play 3x, Then   /------------------]
[-2-----------------/                   /-2------2---------]Played
[-2------2-1-------/                    /-2--------1-0-----]1x
[-0-00-------3-2--/                     /-0-00--------3----]
    ..                                      ..

 Guitar Fill Part 2   (Guitars 1+2)  4x
[-----------------/-------------------]
[-----------------/-------------------]
[-----------------/-------------------]
[-2---------------/-3------2----------]
[-2------2-1------/-3--------1-0------]
[-0-00------3-2--/--1-11----------3---]
    ..                ..

     Pre-Verse  (Guitars 1+2)  1x
[-------------------------------------]
[-------------------------------------]
[------4----3----7----11----10--------]
[-2----4----3----7----11----10--------]
[-2----2----1----5----9------8--------]
[-0-----------------------------------]

Verse
Guitars 1+2)  4x
[----------------/               /----------------------------]
[----------------/               /----------------------------]
[----------------/  Play 3x     /----------------------------]
[-2--------------/        then: /-2--------------------------]  Play This
[-2------2-1-----/               /-2-------5p3p0-4p2p0--------]  1x
[-0-000-----3----/               /-0-00-----------------------]
    ...                             ..

Chorus
Guitars 1+2)  4x
[-----------------/--------------------]
[-----------------/--------------------]
[-----------------/--------------------]
[-2---------------/-3------3-2---------]
[-2-----2-1-------/-3----------3-2-----]
[-0-00-----3-2----/-1-11---------------]
    ..                ..

Pre-Verse  (Guitars 1+2)  1x
[-------------------------------------]
[-------------------------------------]
[------4----3----7----11----10--------]
[-2----4----3----7----11----10--------]
[-2----2----1----5----9------8--------]
[-0-----------------------------------]

Verse
Guitars1+2)4x
[----------------/          /-----------------------------]
[----------------/          /-----------------------------]
[----------------/ Play 3x /-----------------------------]
[-2--------------/   then: /-2---------------------------]  Play This
[-2------2-1-----/          /-2-------5p3p0-4p2p0---------]  1x
[-0-000-----3----/          /-0-00------------------------]
    ...                        ..

Chorus
Guitars 1+2)  4x
[--------------/-------------------]
[--------------/-------------------]
[--------------/-------------------]
[-2------------/-3------3-2--------]
[-2-----2-1----/-3----------3-2----]
[-0-00-----3-2-/-1-11--------------]
    ..        ..

Intro
Guitar 1)
[----------------------------/-----------------------------]
[----------------------------/-----------------------------]
[----------------------8--4--/----------------------7--3---]
[----------------------8--4--/----------------------7--3---]
[----------------------6--2--/----------------------5--1---]
[-000000000000---------------/-000000000000----------------]
  ............                       ............

Intro
Guitar 2)
[-----------------------/-----------------------------------]
[-----------------------/-----------------------------------]
[------------------3----/-----------------------------------]
[--------------------4--/------------------------7----6-5---]
[-----------------------/--------------------------8--------]
[-000000000000----------/-000000000000----------------------]
   ...........            ............

        3rd time      (Guitars 1+2)
[----------------------/--------------------------------4-7-]
[----------------------/------------------------------6-----]
[----------------------/--------------------------4-7-------]
[---------------3--6---/----------------------3-6-----------]
[---------------3--6---/--------------------5---------------]
[-000000000000--1--4---/-000000000000-----------------------]
  ..................                ..................

        4th Time       (Guitars 1+2)
[---------------------/--------------------7-4--------------]
[---------------------/------------------------6------------]
[---------------------/--------------------------7-4--------]
[---------------6-3---/------------------------------8-6----]
[---------------6-3---/-----------------------------------7-]
[-000000000000--4-1---/-000000000000------------------------]
   ...........          .............

Bridge
Guitar 2)
[----------------------------/------------/-----]
[----------------------------/------------/-----]
[-2------3------2------------/-7----9----/------]
[-2------3------2-----6------/-7----9----/-2----]
[-0-00--1-11----0-00--6------/-5----7----/-2----]
[---------------------4-44--/------------/-0----]
     ...    ...      ...       ...

Bass Fill

Guitar Solo
Guitar 1)