Mando Diao - I Dont Care What The People Say Text Guitar Tab

Learn song with the online tabulature player
main part ("i don't care what the people say")
e|---------------------------------------------------------------------------|
B|---------------------------------------------------------------------------|
G|---------------------------------------------------------------------------|
D|------4-------4----------------------4-------4-----------------------------|
A|-------5-2-5----7-4-0--5-7-5-4-2-------5-2-5---7-4-0--5-7-5-4-2-0-2--------|
E|---------------------------------2-----------------------------------------|

chorus
e|---------------------------------------------------|
B|---------------------------------------------------|
G|---------------------------------------------------|
D|---------------------------------------------------|
A|--------0h2--5-7-5-4-2-----------------------------|
E|---0-0h2----------------2--------------------------|