Mando Diao - Tony Zoulias Lustful Life Text Guitar Tab

Learn the song with the online tablature player
Artist: Mando Diao
Song: Tony Zoulias (Lustful Life)
Album: Ode to Ochrasy
Tabbers: Alfred & Axel
Date: 09/10/2006

Tabbed after the live performance at Liseberg, Sweden.

| /  slide up
| \  slide down
| h  hammer-on
| p  pull-off
| ~  vibrato
| +  harmonic
| x  Mute note
| b  Bend

e|------------------------------------------------------------------------|
B|------------------------------------------------------------------------|
G|-12--12-12-10h12-10-----------------------------------------------------|
D|--------------------12--12-12-10h12-10--------------------10b12--10p8---|
A|---------------------------------------13--13-13-12h13-12------------10-|
E|------------------------------------------------------------------------|

e|----------------------------------------------------------------------------|
B|----------------------------------------------------------------------------|
G|12------14-----15-----/17--15--14--12------14------15-----/17--15--17--17b19|
D|----------------------------------------------------------------------------|
A|----------------------------------------------------------------------------|
E|----------------------------------------------------------------------------|

e|----------------------------------------------------------------|
B|1313131313131313131313131313131315151515151515151515151515151515|
G|----------------------------------------------------------------|
D|----------------------------------------------------------------|
A|----------------------------------------------------------------|
E|----------------------------------------------------------------|

e|--------------------------------13131313131313131313131313131313|
B|16161616161616161616161616161616--------------------------------|
G|----------------------------------------------------------------|
D|----------------------------------------------------------------|
A|----------------------------------------------------------------|
E|----------------------------------------------------------------|

e|15151515151515151515151515151515---|
B|-----------------------------------|
G|--------------------------------12~|
D|-----------------------------------|
A|-----------------------------------|
E|-----------------------------------|

Intro
     (*Riff 1)
D5    Gm  Cm  Bb  D  Gm  Cm  Bb  D

Verse

          Gm
 I had a heart attack
              Cm
 And boy it brought me back
             Bb                        D
 To where I was before I started to believe in myself
           Gm
 I didn't need no gun
           Cm
 I didn't need no sword
          Bb                            D
 I didn't even know the meaning of the terrible war
           Cm
 I didn't need you
                      Gm
 And you didn't need me
              F
 No it don't matter what you told
     D
 My God, you sold your soul

Chorus
            Bb           F
 And if you ever see me without home
       Gm                  Eb
 You know that's 'cause I want it so
         Bb      D                     Gm
 I just like to live a little lustful life
              Bb             F
 And if it's lightning on a sunny day
       Gm                  Eb
 You know that's 'cause I want my way
         Bb      D                     Gm
 I just like to live a little lustful life
(*Riff 1)
  Cm                    Bb
 Live a little lustful life
     D              Gm    Cm   Bb   D
 To live a lustful life

Verse
              Gm
 Oh I didn't need no fun
           Cm
 I didn't need no cunt
              Bb                          D
 To tell me when to leave my door in the morning sun
                 Gm
 'Cause I know where it's at
               Cm
 Yeah I know where it's at
            Bb                          D
 It's up to every little fellow down to every cat
            Cm
 You never need me
                   Gm
 And I never need you
               F
 Now it don't matter what you told
     D
 My God, you sold your soul

Chorus
            Bb           F
 And if you ever see me without home
       Gm                  Eb
 You know that's 'cause I want it so
         Bb      D                     Gm
 I just like to live a little lustful life
              Bb             F
 And if it's lightning on a sunny day
       Gm                  Eb
 You know that's 'cause I want my way
         Bb      D                     Gm
 I just like to live a little lustful life
(*Riff 3)
 Cm                    Bb
 Live a little lustful life
     D              Gm    D    Bb    Cm   Gm   D   Bb   Cm   D
 To live a lustful life

Solo
   Gm                  Cm             Bb                 D
e|---------------------8--8--8-8-8-8--------------------------------------|
B|---------------------8--8--8-8-8-8---------------------7--7--7-7-7-7----|
G|---------------------8--8--8-8-8-8---------------------7--7--7-5-5-5----|
D|-10b12--10----8-10---10-10-10101010-10b12--10----8-10--7--7--7-7-7-7----|
A|-----------12--------------------------------12-------------------------|
E|------------------------------------------------------------------------|
   Gm                  Cm             Bb                 D
e|---------------------8--8--8-8-8-8--------------------------------------|
B|---------------------8--8--8-8-8-8---------------------7--7--7-7-7-7----|
G|---------------------8--8--8-8-8-8---------------------7--7--7-7-7-7----|
D|-10b12--10----8-10---10-10-10101010-10b12--10----8-10--7--7--7-7-7-7----|
A|-----------12--------------------------------12-------------------------|
E|------------------------------------------------------------------------|
   Gm              Cm                              Bb
e|---------------------------------------------------------------------------------|
B|---------------------------------------------------------------------------------|
G|---------------------------------------------------------------------------------|
D|-88888888888888881010101010101010101010101010101012121212121212121212121212121212|
A|---------------------------------------------------------------------------------|
E|---------------------------------------------------------------------------------|
  D                               Gm
e|----------------------------------------------------------------|
B|----------------------------------------------------------------|
G|--------------------------------10101010101010101010101010101010|
D|13131313131313131313131313131313--------------------------------|
A|----------------------------------------------------------------|
E|----------------------------------------------------------------|
  Cm                              Bb
e|----------------------------------------------------------------|
B|----------------------------------------------------------------|
G|1212121212121212121212121212121214141414141414141414141414141414|
D|----------------------------------------------------------------|
A|----------------------------------------------------------------|
E|----------------------------------------------------------------|
  D                               Gm
e|----------------------------------------------------------------|
B|----------------------------------------------------------------|
G|1515151515151515151515151515151512121212121212121212121212121212|
D|----------------------------------------------------------------|
A|----------------------------------------------------------------|
E|----------------------------------------------------------------|
  Cm                              Bb
e|----------------------------------------------------------------|
B|----------------------------------------------------------------|
G|1414141414141414141414141414141415151515151515151515151515151515|
D|----------------------------------------------------------------|
A|----------------------------------------------------------------|
E|----------------------------------------------------------------|
  D                               Gm
e|----------------------------------------------------------------|
B|1313131313131313131313131313131315151515151515151515151515151515|
G|----------------------------------------------------------------|
D|----------------------------------------------------------------|
A|----------------------------------------------------------------|
E|----------------------------------------------------------------|
  Cm                              Bb
e|----------------------------------------------------------------|
B|13131313131313131313131313131313--------------------------------|
G|--------------------------------15151515151515151515151515151515|
D|----------------------------------------------------------------|
A|----------------------------------------------------------------|
E|----------------------------------------------------------------|
  D
e|---------------------------------|
B|---------------------------------|
G|14141414141414141414141414141414-|
D|---------------------------------|
A|---------------------------------|
E|---------------------------------|

Chorus
            (*Riff 1)
            Gm           Cm
 And if you ever see me without home
       Bb                  D
 You know that's 'cause I want it so
         Gm      Cm                    Bb     D
 I just like to live a little lustful life
              (*Riff 1)
              Gm             Cm
 And if it's lightning on a sunny day
       Bb                  D
 You know that's 'cause I want my way
         Gm      Cm                    Bb     D
 I just like to live a little lustful life
                             (*Riff 4)
                             Gm
 To Live a little lustful to live, to live
         Cm
 And to die, to die
     Bb
 To live, to live
         D
 And to die, to die
     Gm
 To live, to live
         Cm
 And to die, to die
     Bb
 To live, to live
         D
 And to die, to die
     Gm
 To die

Over and out //ALAX