Mandy Moore - 17 Text Guitar Tab

Learn the song with the online tablature player
This bit is a little confusing as there is a 3 different instruments
happening at once, but I've transcribed it so it works with 2 acoustic
guitars. It's not exact, but a good idea of whats going on.

   GTR. 1
1|-------------------------------------------------------------------|
2|-------------------------------------------------------------------|
3|-----------------5---5---5---7---7---------------------------------|
4|-3-----------3-----------------------------3-----------2-----------|
5|-5---------5---5---------------------------5-----------3-----------|
6|-------------------------------------------------------------------|
 |
 | GTR. 2
1|-------------------------------------------------------------------|
2|-----6-5---5------------------------------------6--6h8-5---8---8-8-|
3|---------------------------------------------------------5---------|
4|---3----------------------------7h8p7------5/7---------------------|
5|-5------------------------------------10-8-------------------------|
6|-------------------------------------------------------------------|

   GTR. 1
1|-------------------------------------------------------------------|
2|-3/5-----------5h6p5---5--5/6~-------------------------------------|
3|-------------7-------7---------------------------------------------|
4|-------------------------------------------------------------------|
5|-------------------------------------------------------------------|
6|-------------------------------------------------------------------|
 |
 | GTR. 2
1|---------------------------------------------------------------------|
2|---------------3-----3-1--1/3~---------------------------------------|
3|-----2/5-------------------------------------------------------------|
4|---2-----------------------------------------------------------------|
5|-0-------------------------------------------------------------------|
6|---------------------------------------------------------------------|

   GTR. 1
1|-------------------------------------------------------------------|
2|-------------------------------------------------------------------|
3|-----------------5---5---5---7---7---------------------------------|
4|-3-----------3-----------------------------3-----------2-----------|
5|-5---------5---5---------------------------5-----------3-----------|
6|-------------------------------------------------------------------|
 |
 | GTR. 2
1|-------------------------------------------------------------------|
2|------------------------------5--6--8---8/10--10h11-10-8--5--------|
3|-------------------------------------------------------------------|
4|-------------------------------------------------------------------|
5|-------------------------------------------------------------------|
6|-------------------------------------------------------------------|

   GTR. 1
1|-------------------------------------------------------------------|
2|----------6p5------------------------------------------------------|
3|--------------5----------------------------------------------------|
4|-------------------------------------------------------------------|
5|-------------------------------------------------------------------|
6|-------------------------------------------------------------------|
 |
 | GTR. 2
1|-0-----------------------------------------------------------------|
2|-1-----------------------------------------------------------------|
3|-2-----------------------------------------------------------------|
4|-------------------------------------------------------------------|
5|-------------------------------------------------------------------|
6|-------------------------------------------------------------------|

VERSE

Dm            C       Am              Bb
  Some people tell me,  that your not my kind

Dm           C         Am
  And I'd believe them,  but I can't get you out of my mind

PRE-CHORUS

         Dm                       C
Cause it feels right, you know it feels good

      Am                   Bb
And I don't always do what I should

CHORUS

                Dm                        C
I don't want to do right, I just want you tonight

         Am         Bb
Not just only in my dreams

             Dm                     C
Save my best behaviour for a little later

          Am        Bb
Cause I'm only seventeen

BRIDGE

Dsus4         Dm           Cadd9     C
Anyone, who's ever been in love, has got to know

   What it means to have a dream and no one can say anything to

1|-6----------------5------------------------------------------------|
2|-----------------------------------5--------------6----------------|
3|-------------------------------------------------------------------|
4|-------------------------------------------------------------------|
5|-------------------------------------------------------------------|
6|-------------------------------------------------------------------|

   Change my mind no not this time

1|-9-----------------------------------------------------------------|
2|-5---------------------------------1-1h3-p3h1----------------------|
3|-----------------------------2--3----------------------------------|
4|-------------------------------------------------------------------|
5|-------------------------------------------------------------------|
6|-------------------------------------------------------------------|