Mandy Moore - In My Pocket Text Guitar Tab

Learn the song with the online tablature player
MANDY MOORE 'IN MY POCKET'

INTRO

1|----------------------------------------------
2|----------------------1-----------------------
3|-3-1p0-1-----0----1h3---3p1-3-0---0-----0---1-
4|-----------3---1----------------3---1-3---3---
5|----------------------------------------------
6|----------------------------------------------

Chords (tremolo guitar)

Cm  Ab  Fm  Cm

VERSE

Cm
 Amoung the many muted faces, you try to find me in the spaces

     Bb
Your drawn to my song

Cm
 You only move to keep from sinking, you close your eyes as if you're thinking

  Bb
Afraid all along

           Ab
That in my eyes you're revealing, so you'll find what you're needing

CHORUS

Cm
Nothing but pennies in my pocket, nothing but faith to keep me warm

     Bb
Well baby then I'd be broke without it

         Ab
Tell me, how much for your love

BRIDGE

Cm  Cm  Bb  Ab

This horn melody doesn't translate all that well onto guitar unfortunately

1|-----------------------------------------------------------------
2|----------------------------------------------------5/6----5/6---
3|-5--5--5--3p2h3-5--5--5--3p2h3--5--3p2h3--5--3p2h3-------5-------
4|-----------------------------------------------------------------
5|-----------------------------------------------------------------
6|-----------------------------------------------------------------

               Ab
‘Cause somehow I’m so afraid the love will reveal what you’re made of