Manes - Nodamnbrakes Text Guitar Tab

Learn the song with the online tablature player
                 E  E  E  E  E  E  E  E     E  E  E  E  E  E  E  E   4x
C ||-------||----------------------------|---------------------------||-----|
G ||-------||----------------------------|---------------------------||-----|
D#||-------||*--10--------9--------8-----|--4--------3--------1-----*||-----|
A#||-------||*---------6--------6--------|--------3--------3-----3--*||-----|
F ||-------||----------------------------|---------------------------||-----|
C ||-------||----------------------------|---------------------------||-----|

    S S S S S S S S  S  S  S S S S S S    S S S S S S S S S S S S S S S S  4x  W
|--------------------------------------|-----------------------------------||-------------------|
|--------------------------------------|-----------------------------------||-------------------|
|*------------------10-10-10-9-9-9-8-8-|------------------4-4-4-3-3-3-1-1-*||-------------------|
|*--6-6-6-6-6-6-6-6--------------------|--3-3-3-3-3-3-3-3-----------------*||--6----------------|
|---6-6-6-6-6-6-6-6--6--6--6-6-6-6-6-6-|--3-3-3-3-3-3-3-3-3-3-3-3-3-3-3-3--||--6----------------|
|---4-4-4-4-4-4-4-4--4--4--4-4-4-4-4-4-|--1-1-1-1-1-1-1-1-1-1-1-1-1-1-1-1--||--4----------------|

                        S S S S S S S S  S  S  S S S S S S    S S S S S S S S S S S S S S S S  4x
-------------------||--------------------------------------|-----------------------------------||
-------------------||--------------------------------------|-----------------------------------||
-------------------||*------------------10-10-10-9-9-9-8-8-|------------------4-4-4-3-3-3-1-1-*||
-------------------||*--6-6-6-6-6-6-6-6--------------------|--3-3-3-3-3-3-3-3-----------------*||
-------------------||---6-6-6-6-6-6-6-6--6--6--6-6-6-6-6-6-|--3-3-3-3-3-3-3-3-3-3-3-3-3-3-3-3--||
-------------------||---4-4-4-4-4-4-4-4--4--4--4-4-4-4-4-4-|--1-1-1-1-1-1-1-1-1-1-1-1-1-1-1-1--||

   PM PM   PM PM   PM PM   PM PM   PM PM PM PM
   S  S  S S  S  S S  S  S S  S  S S  S  S  S     S S S S S S S S  S  S  S  S  S  S  S  S
-----------------------------------------------|-------------------------------------------||
-----------------------------------------------|--9-9-9-9-9-9-9-9-11-11-11-11-11-11-11-11--||
*----------------------------------------------|------------------------------------------*||
*----------------------------------------------|--6-6-6-6-6-6-6-6--8--8--8--8--8--8--8--8-*||
---3--3----3--3----3--3----3--3----5--5--5--5--|-------------------------------------------||
---1--1----1--1----1--1----1--1----3--3--3--3--|-------------------------------------------||

   PM PM   PM PM   PM PM   PM PM   PM PM PM PM
   S  S  S S  S  S S  S  S S  S  S S  S  S  S     S S S S S S S S  S  S  S  S  S  S  S  S
-----------------------------------------------|-------------------------------------------||
-----------------------------------8--8--8--8--|--9-9-9-9-9-9-9-9-11-11-11-11-11-11-11-11--||
*----------------------------------------------|------------------------------------------*||
*----------------------------------5--5--5--5--|--6-6-6-6-6-6-6-6--8--8--8--8--8--8--8--8-*||
---3--3----3--3----3--3----3--3----5--5--5--5--|-------------------------------------------||
---1--1----1--1----1--1----1--1----3--3--3--3--|-------------------------------------------||

  W                                         E  E  E  E  E  E  E  E     E  E  E  E  E  E  E  E
-------------------|-------------------||---------------------------|---------------------------||
--6----------------|-------------------||---------------------------|---------------------------||
-------------------|-------------------||*--------------------------|--------------------------*||
--3----------------|-------------------||*--------------------------|--------------------------*||
-------------------|-------------------||------3-----3-----3-----6--|-----9-----9-----9-----8---||
-------------------|-------------------||------1-----1-----1-----4--|-----7-----7-----7-----6---||

    E   E   E   E   E   E   E   E      E   E   E   E   E   E  E  E
-----------------------------------|---------------------------------||
-----------13----------------------|---------------------------------||
*--10--11------11--10--11--10--11--|--13--10--10--11--10--11--8--L--*||
*----------------------------------|--------------------------------*||
--------3-------3-------3-------6--|-------9-------9-------9-----8---||
--------1-------1-------1-------4--|-------7-------7-------7-----6---||

   S S S S S S S S  S  S  S S S S S S    S S S S S S S S S S S S S S S S  4x
--------------------------------------|-----------------------------------||
--------------------------------------|-----------------------------------||
*------------------10-10-10-9-9-9-8-8-|------------------4-4-4-3-3-3-1-1-*||
*--6-6-6-6-6-6-6-6--------------------|--3-3-3-3-3-3-3-3-----------------*||
---6-6-6-6-6-6-6-6--6--6--6-6-6-6-6-6-|--3-3-3-3-3-3-3-3-3-3-3-3-3-3-3-3--||
---4-4-4-4-4-4-4-4--4--4--4-4-4-4-4-4-|--1-1-1-1-1-1-1-1-1-1-1-1-1-1-1-1--||

   PM PM   PM PM   PM PM   PM PM   PM PM PM PM
   S  S  S S  S  S S  S  S S  S  S S  S  S  S     S S S S S S S S  S  S  S  S  S  S  S  S
-----------------------------------------------|-------------------------------------------||
-----------------------------------------------|--9-9-9-9-9-9-9-9-11-11-11-11-11-11-11-11--||
*----------------------------------------------|------------------------------------------*||
*----------------------------------------------|--6-6-6-6-6-6-6-6--8--8--8--8--8--8--8--8-*||
---3--3----3--3----3--3----3--3----5--5--5--5--|-------------------------------------------||
---1--1----1--1----1--1----1--1----3--3--3--3--|-------------------------------------------||

   PM PM   PM PM   PM PM   PM PM   PM PM PM PM
   S  S  S S  S  S S  S  S S  S  S S  S  S  S     S S S S S S S S  S  S  S  S  S  S  S  S
-----------------------------------------------|-------------------------------------------||
-----------------------------------8--8--8--8--|--9-9-9-9-9-9-9-9-11-11-11-11-11-11-11-11--||
*----------------------------------------------|------------------------------------------*||
*----------------------------------5--5--5--5--|--6-6-6-6-6-6-6-6--8--8--8--8--8--8--8--8-*||
---3--3----3--3----3--3----3--3----5--5--5--5--|-------------------------------------------||
---1--1----1--1----1--1----1--1----3--3--3--3--|-------------------------------------------||

  H.           Q
---------------------||
--6------------6\----||
---------------------||
--3------------3\----||
---------------------||
---------------------||

Duration Legend

W - whole
H - half
E - 8th
S - 16th
. - note dotted

L - tied note
\ -  slide into from above or out of downwards
PM - palm mute