Manfred Mann - Mighty Quinn Text Guitar Tab

Learn song with the online tabulature player
-----------------------------------------------------------------------------
          The Mighty Quinn (Quinn The Eskimo) - Manfred Mann
-----------------------------------------------------------------------------

Tabbed by: paul
E-mail: stashj8@yahoo.com

Tuning: standard

(tacet until 0:05)

For all choruses - the "Come on without.."
G|--------------------------------------------------------------|
D|---2234-------------------------------------------------------|
A|2-2-----------2-2----2-2--4-4-----2-2-------------------------|
E|-------2-2-2h4----2h4---------2-2-----------------------------|


For all verses...First one begins at (0;28) This riff is played twice
before the actually words are sung.
G|----------------------------------------------------------------------------|
D|--2234----------------------------------------------------------------------|
A|22----2---------------------------------------------------------------------|
E-----------------------------------------------------------------------------|

Some fills that Klaus will play off of that lick >>
G|-----------------------------------------------------------------|
D|-------------------------2h4p2-2h4p2-----------------------------|
A|22-2----22-----------22-2------------22--------------------------|
E|----0012---------------------------------------------------------|

And that's it! There isn't anything else, one the stops, the same 'B'
note is played. Enjoy!!!


| /  slide up
| \  slide down
| h  hammer-on
| p  pull-off
| ~  vibrato
| +  harmonic
| x  Mute note
===============================================================================