Manic Drive - Memories Acoustic Text Guitar Tab

Learn the song with the online tablature player
Band: Manic Drive
Song: Memories (Acoustic Version)
Tabbed : Anto84

Asus2=002200
F=033210
Am=002210
C=032010
G=320030
Bb=113331
Dm=000231

                                        (verse)

      As2     F       As2      F

E|------0-----0-|------0-------0---|
B|------0-----1-|------0-------1---|
G|--------------|------------2-----|
D|----2-----3---|----2-----3-------|
A|--0-----3-----|--0-----3---------|
E|--------------|------------------|

        As2       F

E|--------0-------0---|
B|--------0-------1---|
G|------2-------2-----|
D|----2-------3-------|  x2
A|--0-------3---------|
E|--------------------|

As2       F               As2            F

They can try to test my believe in you, oh God

                As2

But I won't turn away

                        F

They may throw stones and outcast me

          As2        F

For my believe in you ...

                                        (pre-chorus)

 F       Am                        F

I will give all I have because of your sacrifice

             Am

Because the love of Jesus Christ...

                                        (chorus)

 C               G                     Dm

Though my memories may slowly slip away

                    F                      G

Your love for me will always stay the same...

                                        (bridge)

 Bb                     C  Dm

If I go astray, If I run away

         G

No you won't let go

         F

No you won't let me slip away

God Bless you :)