Manic Drive - Something More Text Guitar Tab

Learn the song with the online tablature player
Band: Manic Drive
Song: Something More
Tabbed : Anto84

Dropped C: C-G-C-F-A-D

                                        (INTRO-CHORUS)

D|-----------------------------------------------------------------|
A|-----------------------------------------------------------------|
F|-----------------------------------------------------------------|
C|--8-8--7--0-0--7-7--3-3--1-1--8-8--1-1--3--0-0--7-7--3-3--1-1----| x2
G|--8-8--7--0-0--7-7--3-3--1-1--8-8--1-1--3--0-0--7-7--3-3--1-1----|
C|--8-8--7--0-0--7-7--3-3--1-1--8-8--1-1--3--0-0--7-7--3-3--1-1----|

D|----------|
A|----------|
F|----------|
C|--8-8--7--|
G|--8-8--7--|
C|--8-8--7--|

                                        (VERSE)

D|--------------------------------------|
A|--------------------------------------|
F|--------------------------------------|
C|--0--0-0-3--3-3-8--8-8-7--10-12-12----|
G|--0--0-0-3--3-3-8--8-8-7--10-12-12----|
C|--0--0-0-3--3-3-8--8-8-7--10-12-12----|

D|--------------------------------|
A|--------------------------------|
F|--------------------------------|
C|--0--0-0-3--3-3-8--8-8-7--10----|
G|--0--0-0-3--3-3-8--8-8-7--10----|
C|--0--0-0-3--3-3-8--8-8-7--10----|

repeat INTRO-CHORUS

repeat VERSE

repeat INTRO-CHORUS

                                        (BRIDGE)

Clean

D|-------------------------------------------|
A|-------------------------------------------|
F|----2-------5-------4-------3--------------|
C|--0---0-2-3---3-5-2---2-3-1---1-3----------| X2
G|-------------------------------------------|
C|-------------------------------------------|

(Guitar 2)

Clean + Tremolo + chorus

D|-----------16----16-15---------|
A|-----17-------17---------------|
F|--18----18---------------------|
C|-------------------------------| X4
G|-------------------------------|
C|-------------------------------|

Distortion

D|-----------------------------------------------|
A|-----------------------------------------------|
F|-----------------------------------------------|
C|--0-0-0-0--3-3-3-3--2-2-2-2--1-1-1-1-----------|  x2
G|--0-0-0-0--3-3-3-3--2-2-2-2--1-1-1-1-----------|
C|--0-0-0-0--3-3-3-3--2-2-2-2--1-1-1-1-----------|

solo
guitar2)

D|-------------------15---15---------------------|
A|--13--12--11--10---21--b18---------------------|
F|--17--16--15--14-------------------------------|
C|-----------------------------------------------|
G|-----------------------------------------------|
C|-----------------------------------------------|

                                        (CHORUS)

D|-----------------------------------------------------------------|
A|-----------------------------------------------------------------|
F|-----------------------------------------------------------------|
C|-----------------------------------------------------------------|
G|-----------------------------------------------------------------|
C|--0-0--7-7--3-3--1-1--8-8--1-1--3--0-0--7-7--3-3--1-1--8-8--7----|

D|-----------------------------------------------------------------|
A|-----------------------------------------------------------------|
F|-----------------------------------------------------------------|
C|-------------------------------------------------------8-8--7----|
G|-------------------------------------------------------8-8--7----|
C|--0-0--7-7--3-3--1-1--8-8--1-1--3--0-0--7-7--3-3--1-1--8-8--7----|

D|-----------------------------------------------------------------|
A|-----------------------------------------------------------------|
F|-----------------------------------------------------------------|
C|--0-0--7-7--3-3--1-1--8-8--1-1--3--0-0--7-7--3-3--1-1--8-8--7----|
G|--0-0--7-7--3-3--1-1--8-8--1-1--3--0-0--7-7--3-3--1-1--8-8--7----|
C|--0-0--7-7--3-3--1-1--8-8--1-1--3--0-0--7-7--3-3--1-1--8-8--7----|

                                        (END)

D|-----------------------------------------------|
A|-----------------------------------------------|
F|-----------------------------------------------|
C|--0-0-0-0--3-3-3-3--2-2-2-2--1-1-1-1-----------|  x2
G|--0-0-0-0--3-3-3-3--2-2-2-2--1-1-1-1-----------|
C|--0-0-0-0--3-3-3-3--2-2-2-2--1-1-1-1-----------|