Manic Drive - Tragedy Text Guitar Tab

Learn the song with the online tablature player
Band: Manic Drive
Song: Tragedy
Tabbed : Anto84

Video:

                                        (VERSE)

Clean + tremolo + delay

E|------------------------------------------|
B|------------------------------------------|
G|------------------------------------------|
D|----11--------10-------10-------6---------| x2
A|-------8---------8--------6-------4-------|
D|--8---------8--------6--------4-----------|

Piano

E|-----21-20----20-21----21-20----20-21-----|
B|--18-------18-------18-------18-----------|
G|------------------------------------------|
D|------------------------------------------| x2
A|------------------------------------------|
D|------------------------------------------|

E|-----21-20----20-21----21-20----20-21-----|
B|--16-------16-------16-------16-----------|
G|------------------------------------------|
D|------------------------------------------|
A|------------------------------------------|
D|------------------------------------------|

E|---16--21-20--16--20-21--16--21-20--16--20-21-----|
B|--------------------------------------------------|
G|--------------------------------------------------|
D|--------------------------------------------------|
A|--------------------------------------------------|
D|--------------------------------------------------|

                                        (CHORUS)

E|----------------------------------------------------------------|
B|----------------------------------------------------------------|
G|----------------------------------------------------------------|
D|--4--6--6/8--8/11-11-11--4--6--6/8--8/11-11-11--4-4-4--1-1-1----|
A|--4--6--6/8--8/11-11-11--4--6--6/8--8/11-11-11--4-4-4--1-1-1----|
D|--4--6--6/8--8/11-11-11--4--6--6/8--8/11-11-11--4-4-4--1-1-1----|

repeat VERSE

repeat Chorus

                                        (BRIDGE)

Clean

E|---------------------|
B|---------------------|
G|---------------------|
D|--8-8-8--11-11-11----|
A|--8-8-8--11-11-11----|
D|--8-8-8--11-11-11----|

...don't you walk away from me ...

Piano

E|-----21-20----20-21-------------|
B|--18-------18-------18----------|
G|--------------------------------|
D|--------------------------------| x2
A|--------------------------------|
D|--------------------------------|

Distortion

E|---------------------------|
B|---------------------------|
G|---------------------------|
D|--8-8-8--11-11-11--4-4-4---| x2
A|--8-8-8--11-11-11--4-4-4---|
D|--8-8-8--11-11-11--4-4-4---|

Piano

E|-----21-20----20-21----21-20----20-21-----|
B|--18-------18-------18-------18-----------|
G|------------------------------------------|
D|------------------------------------------| x2
A|------------------------------------------|
D|------------------------------------------|

E|-----21-20----20-21----21-20----20-21-----|
B|--16-------16-------16-------16-----------|
G|------------------------------------------|
D|------------------------------------------|
A|------------------------------------------|
D|------------------------------------------|

E|---16--21-20--16--20-21--16--21-20--16--20-21-----|
B|--------------------------------------------------|
G|--------------------------------------------------|
D|--------------------------------------------------|
A|--------------------------------------------------|
D|--------------------------------------------------|

Clean + tremolo + delay

E|------------------------------------------|
B|------------------------------------------|
G|------------------------------------------|
D|----11--------10-------10-------6---------|
A|-------8---------8--------6-------4-------|
D|--8---------8--------6--------4-----------|

Classic Guitar

E|--------------------------------------------------------------------|
B|--------------------------------------------------------------------|
G|--5--5-5-6--8-10--8----8-10-11-10--8----8-10-11-10--8-10------------|
D|--7--7-7-8-10-11-10---10-11-13-11-10---10-11-13-11-10-11------------|
A|--------------------------------------------------------------------|
D|--------------------------------------------------------------------|

                                (CHORUS-END)

E|----------------------------------------------------------------|
B|----------------------------------------------------------------|
G|----------------------------------------------------------------|
D|--4--6--6/8--8/11-11-11--4--6--6/8--8/11-11-11--4-4-4--1-1-1----|
A|--4--6--6/8--8/11-11-11--4--6--6/8--8/11-11-11--4-4-4--1-1-1----|
D|--4--6--6/8--8/11-11-11--4--6--6/8--8/11-11-11--4-4-4--1-1-1----|

E|---------------------------------|
B|---------------------------------|
G|---------------------------------|
D|--8-8-8--11-11-11--4-4-4--1-1-1--| x2
A|--8-8-8--11-11-11--4-4-4--1-1-1--|
D|--8-8-8--11-11-11--4-4-4--1-1-1--|

E|----------------------|
B|----------------------|
G|----------------------|
D|--1---8---11---4---1--|
A|--1---8---11---4---1--|
D|--1---8---11---4---1--|