Manic Hispanic - I Want To Be A Cholo Text Guitar Tab

Learn song with the online tabulature player
http://www.byorecords.com/bandpage.php?band=manichispanic
-------------------------------------------------------------------
Manic Hispanic - I Want To Be A Cholo
Punk Rock Guitar Distortion
Standard Guitar Tuning

Intro (Bass)

|------------------------------------------------------------------|
|------------------------------------------------------------------|
|------------------------------------------------------------------|
|-000-000-000-000-000-000-000-000-000-000-000-000------------------|
Palm Mute

Intro (Guitar)
|-------0(Let Ring)-------5(Let Ring)------------------------------|
|-3--5--0(Let Ring)-3--5--5(Let Ring)-3---1-0-0 (Let Ring)---------|
|---------------------------------------------0--------------------|
|------------------------------------------------------------------|
|------------------------------------------------------------------|
|------------------------------------------------------------------|

|-------0(Let Ring)------------------------------------------------|
|-3--5--0(Let Ring)------------------------------------------------|
|------------------------------------------------------------------|
|------------------------------------------------------------------|
|-----------------------2---5-(Let Ring)-----------2---5 (Let Ring)|
|-------------------0-3---3-------------------0-3---3--------------|

|------------------------------------------------------------------|
|------------------------------------------------------------------|
|--------------------------------------------------7------4--------|
|--------------------------------------------------7------4--------|
|----2---5-(Let Ring)---------2---5------5-----6---5------2--------|
|0-3---3------------------0-3---3---3-0----4-0---5-----------------|

|------------------------------------------------------------------|
|------------------------------------------------------------------|
|------------------------------------------------------------------|
|5--2--2h3p2p0---5--2--2h3p2p0---5--2--2h3p2p0---------------------|
|------------------------------------------------------------------|
|------------------------------------------------------------------|

|------------------------------------------------------------------|
|------------------------------------------------------------------|
|------------------------------------------------------------------|
|5-2h3p2p0-5-2h3p2p0-5-2h3p2p0-5-2h3p2p0---------------------------|
|------------------------------------------------------------------|
|------------------------------------------------------------------|

Bridge (Bass)

|------------------------------------------------------------------|
|------------------------------------------------------------------|
|------------------------------------------------------------------|
|-3-333-333-333-2-222-222-222-3-333-333-333-2-222-222-222----------|

Verse

|-------| x8	|-------| x4	|-------| x4
|-------| x8	|-------| x4	|-------| x4
|7xx----| x8	|9xx----| x4	|7xx----| x4
|7xx7xx-| x8	|9xx9xx-| x4	|7xx7xx-| x4
|5xx7xx-| x8	|7xx9xx-| x4	|5xx7xx-| x4
|---5xx-| x8	|---7xx-| x4	|---5xx-| x4

Verse (Bass)

|-----| x8	|-----| x4	|-----| x4
|-----| x8	|-----| x4	|-----| x4
|-5---| x8	|-7---| x4	|-5---| x4
|---5-| x8	|---7-| x4	|---5-| x4


Chorus

|---------------------------------------------------------------|
|---------------------------------------------------------------|
|---------------------------------------------------------------|
|-5-555-555-555---4-444-444-444---5-555-555-555---4-444-444-444-|
|-5-555-555-555—--4-444-444-444---5-555-555-555---4-444-444-444-|
|-3-333-333-333—--2-222-222-222---3-333-333-333—--2-222-222-222-|

Outro (Slow)

|------------------------------------------------------------------|
|------------------------------------------------------------------|
|------------------------------------------------------------------|
|------------------------------------------------------------------|
|----2---5-(Let Ring)----------------------------------------------|
|0-3---3-----------------------------------------------------------|

Order

Intro (Bass)	x1
Intro (Guitar)	x1
Bridge (Bass)	x1
Verse		x1
Chorus		x1
Verse		x1
Chorus		x1
Verse		x1
Chorus		x1
Verse		x1
Chorus		x1
Verse (Bass)	x1
Chorus		x1
Verse		x1
Chorus		x1
Outro		x1