Manic Street Preachers - Miss Europa Disco Dancer Text Guitar Tab

Learn the song with the online tablature player
/  slide up
\  slide down
h  hammer-on
p  pull-off
~  vibrato
+  harmonic
x  mute note

Play these fast so you can get the right rhythm and repeat it as many times as you want.

e|-------------------------------------|
B|-------------------------------------|
G|-------------------------------------|
D|-------2-4-2---2-4-------2-4-2---2-6-|
A|-2-4-4-------4-----2-4-4-------4-----|
E|-------------------------------------|

e|-------------------------------------|
B|-------------------------------------|
G|-------------------------------------|
D|-------2-4-2---2-4-------2-4-2---2-4-|
A|-2-4-4-------4-----2-4-4-------4-----|
E|-------------------------------------|