Manic Street Preachers - Pretension Repulsion Text Guitar Tab

Learn the song with the online tablature player
Intro
------------------------------||
------------------------------||
------------------------------||
-----5---7-5-------0---3-0----||
---8---------8---2---------2--||
-6-----6-------3--------------||
  Bb            G
rpt through verses

Sickened and housed street death's burned
Blacked, lived, compelled and cold
Closed down and swallowed formed and regained
Blacked, curt, gloat and discerned

G5        D#5
Shot from shot
F5            C5
The androgyny fails

|-----------------|
|-----------------|
|-7b-7br-5--------|
|-----------9vv---|
|-----------------|
|-----------------|

G5           D#5
Odalisque by Ingres
F5                 C5
Yet your bones for sale
E5
Bornographic vs pornographic
G5
Pornographic

---------------|------------|
---------------|------------|
---------------|------------|
---------------|------------|
---6---5-------|------------|
-0---0---1vvv--|------------|

Verse
Expertly clothed amazed and perturbed
Assumed annoyed and ceased
Bow down together
Agonised and locked
Mixed, sealed and received

G5        D#5
Shot from shot
F5            C5
The androgyny fails

|-----------------|
|-----------------|
|-7b-7br-5--------|
|------------9vv--|
|-----------------|
|-----------------|

G5           D#5
Odalisque by Ingres
F5                 C5
Yet your bones for sale
E5
Bornographic vs pornographic
G5
Pornographic

Solo

G5        D#5
Shot from shot
F5            C5
The androgyny fails

|-----------------|
|-----------------|
|-7b-7br-5--------|
|-----------9vv---|
|-----------------|
|-----------------|

G5           D#5
Odalisque by Ingres
F5                 C5
Yet your bones for sale
E5
Bornographic vs pornographic
G5
Pornographic

---------------|------------|
---------------|------------|
---------------|------------|
---------------|------------|
---6---5-------|------------|
-0---0---1vvv--|------------|