Manilla Road - The Ram Text Guitar Tab

Learn the song with the online tablature player
THE RAM (Manilla Road)

    Intro...........................................................
      A5              G5    A5         F5   G5   A5              C5
e:||---------------------|---------------------|--------------------|
B:||*--------------------|---------------------|--------------------|
G:||--2---------2--------|--2------------------|-2---------2-----5--|
D:||--2---------2-----5--|--2----------3----5--|-2---------2-----5--|
A:||*-0---0--0--0--0--5--|--0---0--0---3----5--|-0---0--0--0--0--3--|
E:||------------------3--|-------------1----3--|--------------------|
          P.M.    P.M           P.M.                  P.M.    P.M.

  .....................
    A5         F5  G5 4x
e:--------------------||
B:-------------------*||
G:--2-----------------||
D:--2----------3---5--||
A:--0---0--0---3---5-*||
E:-------------1---3--||
        P.M.

    Rh.Fig.1.........................................................
      A5              G5    A5         F5   G5   A5              C5
e:||---------------------|---------------------|--------------------|
B:||*--------------------|---------------------|--------------------|
G:||--2---------2--------|--2------------------|-2---------2-----5--|
D:||--2---------2-----5--|--2----------3----5--|-2---------2-----5--|
A:||*-0---0--0--0--0--5--|--0---0--0---3----5--|-0---0--0--0--0--3--|
E:||------------------3--|-------------1----3--|--------------------|
          P.M.    P.M           P.M.                  P.M.    P.M.
      1.       Senen eyed   wonder                        mystery to
               Beyond the   mountains                     lost in the

  ..............................................................
    A5         F5  G5  A5              G5    A5         F5   G5
e:-------------------|--------------------|---------------------|
B:-------------------|--------------------|---------------------|
G:--2----------------|-2---------2--------|--2------------------|
D:--2----------3---5-|-2---------2-----5--|--2----------3----5--|
A:--0---0--0---3---5-|-0---0--0--0--0--5--|--0---0--0---3----5--|
E:-------------1---3-|-----------------3--|-------------1----3--|
        P.M.     P.M.    P.M           P.M.
   man                           riding the thunder
   sand                          the golden statue

  ...............................................
   E5
e:--------------------|--------------------------||
B:--------------------|-------------------------*||
G:--------------------|--------------------------||
D:-2------------------|-2------------------------||
A:-2------------------|-2-----------------------*||
E:-0---0--0--0--0--0--|-0---0--0--0--0--0--0--0--||
     P.M__________        P.M________________
        On    God's  command
        Of the Ram

  Chorus.............................................................
   F5              G5              A5  G5      F5
e:---------------|---------------|-----------|----------------------|
B:---------------|---------------|-----------|----------------------|
G:---------------|---------------|-2---------|----------------------|
D:-3-------------|-5-------------|-2---5-----|-3--------------------|
A:-3-------------|-5-------------|-0---5-----|-3--------------------|
E:-1-------------|-3-------------|-----3-----|-1---1--1--1--1--1--1-|
                                                P.M_______________
     Look for the lost and you'll just mind   find

  ........................................................................
                            G5            A5
e:------------------------|-------------|----------------|----------------|
B:------------------------|-------------|----------------|----------------|
G:------------------------|-------------|-2--------------|----------------|
D:------------------------|-5-----------|-2--------------|----------------|
A:------------------------|-5-----------|-0--0-0-0-0-0-0-|0-0-0-0-0-0-0-0-|
E:-1--1--1--1--1--1--1--1-|-3-----------|----------------|----------------|
  ________________________                   P.M__________________________
                  that the cost is your   mind

  ..................................................................
   F5              G5              A5  G5 F5
e:---------------|---------------|-----------|----------------------|
B:---------------|---------------|-----------|----------------------|
G:---------------|---------------|-2---------|----------------------|
D:-3-------------|-5-------------|-2---5-----|-3--------------------|
A:-3-------------|-5-------------|-0---5-----|-3--------------------|
E:-1-------------|-3-------------|-----3-----|-1---1--1--1--1--1--1-|
                                                P.M_______________
     Ride   the    serpent    and make your  stand

  ............................................
                            E5
e:------------------------|-------------------|
B:------------------------|-------------------|
G:------------------------|-------------------|
D:------------------------|-2-----------------|
A:------------------------|-2-----------------|
E:-1--1--1--1--1--1--1--1-|-0-----------------|
  ________________________

                    Cast no doubt  to the ram

Solo w/Rh.Fig.1

Second verse w/Rh.Fig.1 (twice)

Lost in confusion time slips away
Inside the illusion hear them say
Fight fire with fire, give hell to the damned
Long live desire long live the ram

Repeat chorus

    Outro....................................................
      A5         F5       G5        A5      F5       E5
e:||-----------|--------|---------|-------|--------|---------||
B:||*----------|--------|---------|-------|--------|--------*||
G:||--2--------|--------|---------|-2-----|--------|---------||
D:||--2--------|-3------|-5-------|-2-----|-3------|-2-------||
A:||*-0--------|-3------|-5-------|-0-----|-3------|-2------*||
E:||-----------|-1------|-3-------|-------|-1------|-0-------||

Solo w/Outro