Mansun - Six Text Guitar Tab

Learn the song with the online tablature player
Band  : Mansun
Album : six
Added By Mikhailo
______________________________________________________________

six

e|-------9-|
B|----12---|
G|-11------|
D|---------|  x a few, at random
A|---------|
E|---------|

D|------------------------------------------------------------------|
A|-5-5-5-5-5-5-5-5-4-4-4-4-4-4-4-4--9-9-9-9-9-9-9-9-7-7-7-7-7-7-7-7-|
E|-3-3-3-3-3-3-3-3-2-2-2-2-2-2-2-2--7-7-7-7-7-7-7-7-5-5-5-5-5-5-5-5-|
     And you see,         I kind of shivered  to    conformity

D|------------------------------------------------------------------|
A|-5-5-5-5-5-5-5-5-4-4-4-4-4-4-4-4--9-9-9-9-9-9-9-9-7-7-7-7-7-7-7-7-|
E|-3-3-3-3-3-3-3-3-2-2-2-2-2-2-2-2--7-7-7-7-7-7-7-7-5-5-5-5-5-5-5-5-|
     Did you see          the way I cowered   to    authority, you see,

D|------------------------------------------------------------------|
A|-5-5-5-5-5-5-5-5-4-4-4-4-4-4-4-4--9-9-9-9-9-9-9-9-7-7-7-7-7-7-7-7-|
E|-3-3-3-3-3-3-3-3-2-2-2-2-2-2-2-2--7-7-7-7-7-7-7-7-5-5-5-5-5-5-5-5-|
     My life,       it's a series of compromises    anyway, it's a

e|------------------------------------------------------------------|
B|------------------------------------------------------------------|
G|-~11-9-7-9-7--~11--9-7-9---------~11--9-7-------------------------|
D|--------------------------7------------------9--------------------|
A|-------------------------------------------9---9---7---7---9------|
E|---------------------------------------------------------------7--|
 |                    2   G U I T A R S                             |
D|------------------------------------------------------------------|
A|-5-5-5-5-5-5-5-5-4-4-4-4-4-4-4-4--9-9-9-9-9-9-9-9-7-7-7-7-7-7-7-7-|
E|-3-3-3-3-3-3-3-3-2-2-2-2-2-2-2-2--7-7-7-7-7-7-7-7-5-5-5-5-5-5-5-5-|
    sham,          and I'm   conditioned   to   accept it all, you see

|-------------14----------|
|-12----12----------12----|
|----11----11----11----11-|
|-------------------------|
|-------------------------|
|-------------------------|
       G          G  G
(More) than I had before
       F#           F#  F#
(More) than I've presently got
       B          B     B
(More) than I'll ever use up
       A         A   A
(More) than I really need

E  F#               A
     It's more than I can spare
     A#
My religion is caged

F# F#    A B   F# F#    A B

F# F#     A  B      F# F#       A B
Safe from progress, purgatory I know
F# F#           A    B   F# F#         A    B
How does this affect me? Emotionally affect me?

          D   B
Will they let me go
          D   B
Will they let me go
          D   B
Will they let me go
    A#                 A
Equilibrium imbalanced again

D         F
I feel no pain
e|--------|
B|--14~12-|
G|--------|
D         F
I feel no...
D         F
I feel no pain
G#                               G           F#
The Jabberwocky haunts me, in my memory it's caged

I feel no pain (I feel no pain)
I feel no... (I feel no...)
The Jabberwocky haunts me, in my memory it's caged
e|------12-10------------|
B|------------10-12------|
G|-9-10-------------10-9-|
D|-----------------------|
A|-----------------------|
E|-----------------------| x a few

|---------------------|
|-10-12---------------|
|-------10-9--10-9----|
|------------------12-|
|---------------------|
|---------------------| also x a few

|--------------------------------13---------------------------------------|
|-13-12--13s15-15s13----15s13-------------15s13---------------------------|
|-----------------------------------13-------------14s12------------------|
|--------------------15-------15-------15-------15----------15-12---------|
|--------------------------------------------------------15--------8-7----|
|----------------------------------------------------------------------10-|

|---------------------13---------------------------------------|
|-15s13-----15s13--------------15s13---------------------------|
|------------------------13-------------14s12------------------|
|--------15--------15-------15-------15----------15-12---------|
|---------------------------------------------15--------8-7----|
|-----------------------------------------------------------10-|

|----------------------13-|
|-15s13----15-15s13-------|
|-------------------------|
|------15-----------15----|
|-------------------------|
|-------------------------|

D         F
I feel no pain (I feel no pain)
D         F
I feel no... (I feel no...)
D         F
I feel no pain (I feel no...)
           G#                                  G       F#
But if you punched me in the stomach then I'd feel it again
D       F
Feel no pain (I feel no pain)
D       F
I feel no... (I feel no...)
D       F
I feel no pain (I feel no...)
           G#                                  G       F#
But if you punched me in the stomach then I'd feel it again

D  D  D   D  D  D
D A E

G                    E
Life is a compromise anyway
G                    E
Life is a compromise anyway
G                       E
Life, it's a compromise anyway
G                       E
Life, it's a compromise anyway
          C               D
And it's a sham, and I'll accept it all
G                    E
Life is a compromise anyway
G                    E
Life is a compromise anyway
G                       E
Life, it's a compromise anyway
G                       E
Life, it's a compromise anyway
           C                D
And it's a sham, and I'll accept it all

e|------------------------------------------------------------------|
B|------------------------------------------------------------------|
G|-----4-----4---------3-----3----------8-----8---------6-----6-----|
D|-----5-----5---------4-----4----------9-----9---------7-----7-----|
A|-5-5-5-5-5-5-5-5-4-4-4-4-4-4-4-4--9-9-9-9-9-9-9-9-7-7-7-7-7-7-7-7-|
E|-3-3---3-3---3-3-2-2---2-2---2-2--7-7---7-7---7-7-5-5---5-5---5-5-|
     And you see,         I kind of shivered  to    conformity

e|------------------------------------------------------------------|
B|------------------------------------------------------------------|
G|-----4-----4---------3-----3----------8-----8---------6-----6-----|
D|-----5-----5---------4-----4----------9-----9---------7-----7-----|
A|-5-5-5-5-5-5-5-5-4-4-4-4-4-4-4-4--9-9-9-9-9-9-9-9-7-7-7-7-7-7-7-7-|
E|-3-3---3-3---3-3-2-2---2-2---2-2--7-7---7-7---7-7-5-5---5-5---5-5-|
     Did you see          the way I cowered   to    authority, you see,

e|------------------------------------------------------------------|
B|------------------------------------------------------------------|
G|-----4-----4---------3-----3----------8-----8---------6-----6-----|
D|-----5-----5---------4-----4----------9-----9---------7-----7-----|
A|-5-5-5-5-5-5-5-5-4-4-4-4-4-4-4-4--9-9-9-9-9-9-9-9-7-7-7-7-7-7-7-7-|
E|-3-3---3-3---3-3-2-2---2-2---2-2--7-7---7-7---7-7-5-5---5-5---5-5-|
 And my life,       it's a series of compromises    anyway, it's a

e|------------------------------------------------------------------|
B|------------------------------------------------------------------|
G|-~11-9-7-9-7--~11--9-7-9---------~11--9-7-------------------------|
D|--------------------------7------------------9--------------------|
A|-------------------------------------------9---9---7---7---9------|
E|---------------------------------------------------------------7--|
 |                    2   G U I T A R S                             |
e|------------------------------------------------------------------|
B|------------------------------------------------------------------|
G|-----4-----4---------3-----3----------8-----8---------6-----6-----|
D|-----5-----5---------4-----4----------9-----9---------7-----7-----|
A|-5-5-5-5-5-5-5-5-4-4-4-4-4-4-4-4--9-9-9-9-9-9-9-9-7-7-7-7-7-7-7-7-|
E|-3-3---3-3---3-3-2-2---2-2---2-2--7-7---7-7---7-7-5-5---5-5---5-5-|
    sham,          and I'm   conditioned   to   accept it all, you see

|-------------14----------|
|-12----12----------12----|
|----11----11----11----11-|
|-------------------------|
|-------------------------|
|-------------------------|
       G          G  G
(More) than I had before
       F#           F#  F#
(More) than I've presently got
       B          B     B
(More) than I'll ever use up
       A         A   A
(More) than I really need

E  F#               A
     It's more than I can spare
     A#
My religion is caged

BARRE CHORDS:
A   -  577655
A#  -  688766
B   -  x24442
C   -  x35553
D   -  x57775
E   -  022100
F   -  133211
F#  -  244322
G   -  355433
G#  -  466544

negative

intro

e|------------------|
B|------------------|
G|----------------9-|
D|----11--11----9---|
A|------------------|
E|-9---------12-----| x a few

Here's the chorus bit, and I think it's after the intro, too, a few times:

e|-7-7-9-4------------------|-7-7-9-4------------------|
B|---------5-4-0------0---5-|---------5-4-0------0---5-|
G|-----------------1----1---|-----------------1----1---|
D|--------------------------|--------------------------|
A|---------------4----------|---------------4----------|
E|--------------------------|--------------------------|
   I see downwards.....        I see downwards...

e|-7-7-9--2--0--7-7-9--2--0--|-7-7-9-4------------------|
B|---------------------------|---------5-4-0------0---5-|
G|---------------------------|-----------------1----1---|
D|---------------------------|--------------------------|
A|---------------------------|---------------4----------|
E|---------------------------|--------------------------|
  Feelin negtve, feelin negtve I see downwards.

Then, we have the verse, which is simply:
 e|----------------------------------------------------------------------------------|
 B|--------------1-0---------------------1-0--------------0----5-4-0------0---5-4-0--|
 G|-------0----------0-----------0-----------0----------1---1-----------1---1--------|
 D|---2------2----------------2------2-----------------------------------------------|
 A|-0----------------------0-------------------------4---------------4---------------|
 E|----------------------------------------------------------------------------------|
eg. So ya tested negative, panic in your bedsit goes away...

repeated.

CHORDS:

the verse is  C#  Am  a few times. The chorus is C# A F#

C# = x42224
Am = 577555
A  = 577655
F# = 244322

shotgun

Chords
D# x68886
F# 244322
B  x24442
G# 466544
A# 688766
Em 022000
G  355433
C  x35553

intro
e|---------------------------------|
B|-------------------------------8-|
G|-------------------------------8-|
D|---------------------------------|
A|-6-6-6-6-6-6-6-6-6-6-6-6-6-6-6---|
E|---------------------------------|

Then:

D#                     F#
I fully understand the shotgun in my pillow
      B                 G#
Is no uncarved block at hand
D#                F#
Life is sweet but not it seems for Buddha
          B              G#
There's a shotgun in his hand

e---------6--8--6------------------------15-15----15----------------------------
B--7-----7--7--7------------7------7/----------14-------------------------------
G-----8-------------6--6h8-----8-----------------------6-6-6-5---------8---8-88-
D---------------------------------------------------------------6--4----8-------
A------------------------------------------------------------------------6------
E-------------------------------------------------------------------------------

e------------------------------------------------
B-----8--------------9---7-----------------9---7-
G---------8-8-6-6--8---8----8-8-8-8-6-6--8---8---
D-6s8--------------------------------------------
A------------------------------------------------
E------------------------------------------------

D#  A#   F#  G#   D#  A#   F#  G#
Shotgun, shotgun, shotgun, shotgun

e-------------------------------------------------
B-------------------------------------------------
G-------------------------------------------------
D-13-12-11-10-9-8-8-9-10-11-12-13-14--------------
A-------------------------------------------------
E------------------------------------pick-scrape--

    Em          G
The nature of uncarved blocks
   C                      B
Is how to describe what's hard to describe

Em  G  Em  G
Yeah

e|---------------------------------------------------|
B|------------------------------------------------5--|
G|---------7----------7-4-7---------7---------7-4----|
D|-------5----------5-------------5---------5--------|
A|---4s7--------4s7-----------4s7-------4s7----------|
E|-0----------0-------------0---------0--------------|

e|---------------------------------------------------------------|
B|---------------------------------------------------------------|
G|------------19/------------19/\------------19/------------19/\-|
D|---------17-------------17--------------17-------------17------|
A|---16s19----------16s17-----------16s19----------16s19---------|
E|-0--------------0---------------0--------------0---------------|

then later simultaneously with:
e|-7s10--10s9s3--3h5p4-s15-|
B|-------------------------|
G|-------------------------|
D|-------------------------|
A|-------------------------|
E|-------------------------|

After the next break, it's this riff repeated:
|-12-------------------------|-12----------------------------|
|----12-15----12----------12-|----12-15----12----------12----|
|----------14-------12-14----|----------14-------12-14-------|
|----------------14----------|----------------14----------14-|
|----------------------------|-------------------------------|
|----------------------------|-------------------------------|

The simplest things, the quietest
The child-like simplicity
Everything I need to hear
Positive the way I view
The simple of thought inherit the earth (shotgun blows)
Like Winnie the Pooh, confucianist rules (shotgun blows)
Oblivious in what I do (oh)
Deliberate the way I live (shotgun blows)
(Shotgun blows, shotgun blows, oh, shotgun blows)
(Shotgun blows, shotgun blows, oh, shotgun blows)

e|-5-6-7-------5-6-7-------5-6-7-------5-6-7-------787878787878787878787878-|
B|-------5-5-5-------5-5-5-------5-5-5-------5-5-5--------------------------|
G|--------------------------------------------------------------------------|
D|--------------------------------------------------------------------------|
A|--------------------------------------------------------------------------|
E|--------------------------------------------------------------------------|

    Em          G
The nature of uncarved blocks
   C                      Em
Is how to describe what's hard to describe
Em             G
Vinegar taster says
         C                   B
The more force I apply, more trouble I make
(Is that I cannot describe why it is
Such a perfect illustration of the opposite and
Complex arrogance we display to protect one another)

e|----------------------------------------------|
B|----------------------------------------------|
G|-9-11-11/\-9-------9---9-11-11/-9-------12-11-|
D|-------------12-12---8------------12-12-------|
A|----------------------------------------------|
E|----------------------------------------------|

simultaneously with

e|---------------------------------------------------|
B|------------------------------------------------5--|
G|---------7----------7-4-7---------7---------7-4----|
D|-------5----------5-------------5---------5--------|
A|---4s7--------4s7-----------4s7-------4s7----------|
E|-0----------0-------------0---------0--------------|

e|---------------------------------------------------------------|
B|---------------------------------------------------------------|
G|------------19/------------19/\------------19/------------19/\-|
D|---------17-------------17--------------17-------------17------|
A|---16s19----------16s17-----------16s19----------16s19---------|
E|-0--------------0---------------0--------------0---------------|

then even later simultaneously with:

e|-7s10--10s9s3--3h5p4-s15-|
B|-------------------------|
G|-------------------------|
D|-------------------------|
A|-------------------------|
E|-------------------------|

Think too much, think too much
Think too much, think too much

outro
e|---------------------------------------|
B|---------------------------------------|
G|---------7--------------------7--------|
D|-------5--------------------5---5------|
A|---4s7------------------4s7-------7----|
E|-0--------------------0-------------0--|

inverse midas

(arranged for 2 guitars, or a very co-ordinated person)

Chords:
Intro/Great Events bit: B  E  G  F#
Everybody Helps bit: B  D  G(2)  F#(2)

B:    x24442
E:    022100
G     355433
F#    244322
D     x57775
G(2)  x.10.12.12.12.10
F#(2) x.9.11.11.11.9

|--------------------------------------------------------------------|
|-0-2-0-4-0-5-0-7--0-2-0-4-0-5-0-7--0-2-0-4-0-5-0-7--0-2-0-4-0-5-0-8-|
|--------------------------------------------------------------------|
|--------------------------------------------------------------------|
|--(2)------------(2)------------------------------------------------|
|-------------------(0)------------(0-3)------------(3-2)------------|

|--------------------------------------------------------------------|
|-0-2-0-4-0-5-0-7--0-2-0-4-0-5-0-7--0-2-0-4-0-5-0-7--0-2-0-4-0-5-0-8-|
|--------------------------------------------------------------------|
|--------------------------------------------------------------------|
|--(2)------------(2)------------------------------------------------|
|-------------------(0)------------(0-3)------------(3-2)------------|

|-------------------------------------------------------------------|
|-0-2-0-4-0-2-0-4-0-2-0-3-0-2-0-3-0-2-0-3-0-2-0-3-0-2-0-4-0-2-0-1-0-|
|------------------------------------(0)-----------(0)--------------|
|------------------(0)-------------(0)---------------(4)------------|
|--(2)------------(2)-----------------------------------------------|
|-------------------------------------------------------------------|
   E___________very body h_e_l_p_s me ma________ke my own mistakes

|-------------------------------------------------------------------|
|-0-2-0-4-0-2-0-4-0-2-0-3-0-2-0-3-0-2-0-3-0-2-0-3-0-2-0-4-0-2-0-1-0-|
|------------------------------------(0)-----------(0)--------------|
|------------------(0)-------------(0)---------------(4)------------|
|--(2)------------(2)-----------------------------------------------|
|-------------------------------------------------------------------|
             If I'm left alo___ne I'd ma______ke them anyway

|--------------------------------------------------------------------|
|-0-2-0-4-0-5-0-7--0-2-0-4-0-5-0-7--0-2-0-4-0-5-0-7--0-2-0-4-0-5-0-8-|
|--------------------------------------------------------------------|
|--------------------------------------------------------------------|
|--(2)------------(2)------------------------------------------------|
|-------------------(0)------------(0-3)------------(3-2)------------|
    Grea________t even________ts, but can't predict what's happening in

|--------------------------------------------------------------------|
|-0-2-0-4-0-5-0-7--0-2-0-4-0-5-0-7--0-2-0-4-0-5-0-7--0-2-0-4-0-5-0-8-|
|--------------------------------------------------------------------|
|--------------------------------------------------------------------|
|--(2)------------(2)------------------------------------------------|
|-------------------(0)------------(0-3)------------(3-2)------------|
   pre___________sent tens____e.   No ref__eren__ce in code to me

|-------------------------------------------------------------------|
|-0-2-0-4-0-2-0-4-0-2-0-3-0-2-0-3-0-2-0-3-0-2-0-3-0-2-0-4-0-2-0-1-0-|
|------------------------------------(0)-----------(0)--------------|
|------------------(0)-------------(0)---------------(4)------------|
|--(2)------------(2)-----------------------------------------------|
|-------------------------------------------------------------------|
   E___________very body h_e_l_p_s me ma________ke my own mistakes

|-------------------------------------------------------------------|
|-0-2-0-4-0-2-0-4-0-2-0-3-0-2-0-3-0-2-0-3-0-2-0-3-0-2-0-4-0-2-0-1-0-|
|------------------------------------(0)-----------(0)--------------|
|------------------(0)-------------(0)---------------(4)------------|
|--(2)------------(2)-----------------------------------------------|
|-------------------------------------------------------------------|
             If I'm left alo___ne I'd ma______ke them anyway

|-----------------------------------------------------------------|
|-3---3---2---2---3---3---2---2---3---3---2---3---0---0---0---0---|
|---2---2---2---2---2---2---2---2---2---2---2---2---2---2---2---2-|
|-(3)----------------------------(3)------------------------------|
|------------------------------------------------(4)--------------|
|----------------(3)----------------------------------------------|

|-9-7-4----------------4------------9-7-4-----------4---6h7p6-------|
|-------7-5h7-5h7--5h7--------------------7-5h7-5h7-----------5-5-5-|
|------------------------6--4-4-6p4-------------------6-------------|
|-------------------------------------------------------------------|
|-------------------------------------------------------------------|
|-------------------------------------------------------------------|

anti everything

intro
e|-9---4----11-----------9---4----11--------------9---4-----------|
B|---------------5s0-----------------11/\----------------------9--|
G|----------------------------------------9-9-9------------6------|

VERSE

Anti Everything,
Lives in Richard Roger's stories,
I care nothing,
Lives at the bottom of his strung out conscience,
He looks so masculine,
We take a day of cheaped asylum,
Pays for sex in sleeping bags.

e|----------|
B|----------|
G|-4/-------|
As for you or me

e|----------|
B|----------|
G|-4/-------|
Phased out of your lie

e|----------|
B|----------|
G|-4/-------|
You loved it front from me.

e|---------------9-----------------------|
B|-------7/\---------------------7/\-----|
G|-9p8p6------9------------6h9p6-----9-6-|
I tell you anti everything,          loving

e|------------------------------9-----------------------|
B|-----------------7/\-------------------------7/\------|
G|----------6h9p6-----------9------------6h9p6-----9-6--|
and hating both at the same ti I care nothing       Lives

e|------------------------------------------|
B|---------------------9-8-9-8-9--9-8-9-8-9-|
G|------------------------------------------|
at the bottom of his swimwear cushions,

e|---------------------9----------------------9--|
B|-------------7/\---------------------7/\-------|
G|-------6h9p6------9------------6h9p6------9----|
Masculine,     We take a day of cheat asylum.

e|-------------------------|
B|-------7/\-----7---------|
G|-6h9p6------9------------|
Find a place where you can rest

e|--------------------------|
B|------------------7/\-----|
G|------------6h9p6-----9-6-|
your sleepy head and won't get pissed with me.

e|---------------------9-----------------------|
B|-------------7/\---------------------7/\--7--|
G|-------6h9p6------9------------6h9p6---------|
             Find a place where you can rest

e|--------------------------|
B|------------------7/\-----|
G|------------6h9p6-----9-6-|
your sleepy head and won't get pissed with me.

SOLO
e|-9-7-4----------------4---------|-9-7-4-----------------6/\-------|
B|--------7-5h7p5-7-5h7---5-------|--------7-5h7p5-7h9--------------|
G|--------------------------4-4-6-|--------------------6------6-6-6-|

e|-9-7-4----------------4---------|---7---4----------7---4-------------9-|
B|--------7-5h7p5-7-5h7---5-------|-9---7----5---9-9---7---------7/\-----|
G|--------------------------4-4-6-|------------4-----------6h9p6-----9---|

VERSE

e|-------------------------------|
B|---------------------7/\-------|
G|---------------6h9p6------9-6--|
Anti Everything,             lives in Richard

e|---------------------9-------------------------|
B|-------------7/\---------------------7/\-------|
G|-------6h9p6------9------------6h9p6------9-6--|
Roger's doorways    I care nothing,          lives

e|------------------------------------------|
B|---------------------9-8-9-8-9--9-8-9-8-9-|
G|------------------------------------------|
at the bottom of his swimwear cushions,

e|---------------------9----------------------9--|
B|-------------7/\---------------------7/\-------|
G|-------6h9p6------9------------6h9p6------9----|
Masculine,     We take a day of cheat asylum.

e|-------------------------|
B|-------7/\-----7---------|
G|-6h9p6------9------------|
Find a place where you can rest

e|--------------------------|
B|------------------7/\-----|
G|------------6h9p6-----9-6-|
your sleepy head and won't get pissed with me.

e|---------------------9-----------------------|
B|-------------7/\---------------------7/\--7--|
G|-------6h9p6------9------------6h9p6---------|
             Find a place where you can rest

e|--------------------------|
B|------------------7/\-----|
G|------------6h9p6-----9-6-|
your sleepy head and won't get pissed with me.

fall out

CHORDS
A  x02220
C  x35553
G  355433
G# 466544
D# x68886
F  133211
F. x.9.10.10.10.9.

Intro
Dance of the sugar plum fairy - style)

|-13-10-13-12--9-10--------------------------------13----13----|
|--------------------13-13-13-12-12-12-11-11-11-13----14----13-|
|--------------------------------------------------------------|
|--------------------------------------------------------------|
|--------------------------------------------------------------|
|--------------------------------------------------------------|

  A
I know you're purely Marxist
         C
Your philosophy's so cool
          G                          F
With your tranquillisers, valium and gin
            A
You talk of euthanasia
         C
And your breakdown was so cool
    G                                F
Did Stanley Kubrick fake it with the moon?

     C                        G#
This cult of positivity, once again, yeah
             G               C    D# F
But I didn't think about the fall out
C  D# F
Fall out

e|-8--8-10--10-11--11-13--13-15--15--15--8--8-8-8-7--4-3--0-1---0------|
B|------------------------------------------------------------1---1-3/-|
G|---------------------------------------------------------------------|
D|---------------------------------------------------------------------|
A|---------------------------------------------------------------------|
E|---------------------------------------------------------------------|

e|-8--8-10--10-11--11-13--13-15--15--15--8--8-8-8-7--4-3--10/-8--------|
B|--------------------------------------------------------------10/----|
G|------------------------------------------------------------------8--|
D|---------------------------------------------------------------------|
A|---------------------------------------------------------------------|
E|---------------------------------------------------------------------|

e|---------------------------------------------------|
B|-10/-----------------------------------------------|
G|-----8s0-------------------------------------------|
D|---------10-9--------------------------------------|
A|----------------6-6/7\6--4-6--4-6-8-3-~~~~~~~~~~~--|
E|---------------------------------------------------|

e|--------------------------------------------------------------------|
B|--------------------------------------------------------------------|
G|-10-10-9-9-9-10-9-12-10-12/\----------------------------------------|
D|--------------------------------------------------------------------|
A|---------------------------------6-6/7\6--4-6--4-6-8-3-~~~~~~~~~~~--|
E|--------------------------------------------------------------------|

those last two bars are played simultaneously with these next two...

e|------------------------------------------------------------------------------|
B|------------------------------------------------------------------------------|
G|------8------------8--------3---------3-------3---------3-------2---------2---|
D|--------10------10---10-------5-----5---5-------4-----4---4-------3-----3---3-|
A|---10--------10-----------5-------5---------4-------4---------3-------3-------|
E|-8---------8------------3-------3---------2-------2---------1-------1---------|

e|------------------------------------------------------------------------------|
B|------------------------------------------------------------------------------|
G|------8------------8--------3---------3-------3---------3-------2---------2---|
D|--------10------10---10-------5-----5---5-------4-----4---4-------3-----3---3-|
A|---10--------10-----------5-------5---------4-------4---------3-------3-------|
E|-8---------8------------3-------3---------2-------2---------1-------1---------|

     C                        G#
This cult of positivity, once again, yeah
             G               C    D# F
But I didn't think about the fall out
C  D# F
Fall out

e|---------------------------------------|
B|---------------------------------------|
G|-----4---5-4---------------4---5-4-----|
D|---5---5-------5---5-----7---7-------7-|
A|-3-----------3---3---3/7-----------7---| x lots.
E|---------------------------------------|

is played alongside a VERY simple little fiddle with these 3 notes:
e|-------------------|
B|--------------12---|
G|--9-9-12-9--9----9-|
D|-------------------|
A|-------------------|
E|-------------------|

serotonin

well the bass this starts with is
D|---------------|
A|-----------0-1-|
E|-0-3333333-----| which is easy enough.

|-12--------------------------------15-----------|
|----15------12------------------15--------------|
|------------------12-15------12----------12-15--|
|------------------------------------------------|
|------------------------------------------------|
|------------------------------------------------|
  My migrane makes me ill, my electricity is low

|-----12----------------------------------------------|
|--------15-------------------------15----------13----|
|--12-------15----------12----12-15----12-15-15----12-|
|-----------------------------------------------------|
|-----------------------------------------------------|
|-----------------------------------------------------|
My laceration soothes itself, my chemicals flow

|---12-------------------------------------15------------------|
|-------15------12---------------------15----------------------|
|---------------------12-15--------12-------------------12-15--|
|--------------------------------------------------------------|
|--------------------------------------------------------------|
|--------------------------------------------------------------|
And I'm boosting what I take, just like the Germans, getting off

|-----12-----------------------------------------------|
|---------15-------------------------15----------13----|
|--12-----------15-------12----12-15----12-15-15----12-|
|------------------------------------------------------|
|------------------------------------------------------|
|------------------------------------------------------|
On herbal vacuum-pumps of blow, it shows all I know

|-----------------------------------------------------3h5p3-----|
|-----3-----3---3-----3-----3---3-----3-----3---3-----------3---|
|---3-----3---------3-----3---------3-----3---------3-----------|
|-5-----5-----5---4-----4-----4---3-----3-----3---5-----------5-| played twice.
|---------------------------------------------------------------|
|---------------------------------------------------------------|
            And I drop      and I drop,    and my body levels drop
           And my nerves clogging up  sucking all the substance up

|-------------------------------------------------------------|
|-----3-----3-----3-----3-----3-----3-----3-----3-----3-----3-|
|---3-----3-----3-----3-----3-----3-----3-----3-----3-----3---|
|-5-----5-----5-----5-----5-----4-----4-----4-----4-----4-----|
|-------------------------------------------------------------|
|-------------------------------------------------------------|

|-----------------------------------3-----3-----3-----3-----3-|
|-----3-----3-----3-----3-----3---3-----3-----3-----3-----3---|
|---3-----3-----3-----3-----3---3-----3-----3-----3-----3-----|
|-3-----3-----3-----3-----3-----------------------------------|
|-------------------------------------------------------------|
|-------------------------------------------------------------|

|---10-10---8-8-6--5-5--1--1--3--3---|
|------------------------------------|
|------------------------------------|
|------------------------------------|
|------------------------------------|
|------------------------------------|

|----12-------------------------------------15-----------------|
|---------15-----12---------------------15---------------------|
|---------------------12-----15-----12-----------------12-15---|
|--------------------------------------------------------------|
|--------------------------------------------------------------|
|--------------------------------------------------------------|
With this method that I have found, I'm redressing all I know

|------12-----------------------------------------------|
|----------15-------------------------15----------13----|
|---12-----------15---------12--12-15----12-15-15----12-|
|-------------------------------------------------------|
|-------------------------------------------------------|
|-------------------------------------------------------|
 I can change the amount of God, that wraps around me

|-12--------------------------------15---------------|
|-----15---12-------------------15-------------------|
|---------------12-----15---12---------------12-15---|
|----------------------------------------------------|
|----------------------------------------------------|
|----------------------------------------------------|
From a satellite they fire, Serotonin from eight miles

|-----12-----------------------------------------|
|---------15-------------------15----------13----|
|--12----------15---12---12-15----12-15-15----12-|
|------------------------------------------------|
|------------------------------------------------|
|------------------------------------------------|
Above Deeside in binary, It orbits my street

|-----------------------------------------------------3h5p3-----|
|-----3-----3---3-----3-----3---3-----3-----3---3-----------3---|
|---3-----3---------3-----3---------3-----3---------3-----------|
|-5-----5-----5---4-----4-----4---3-----3-----3---5-----------5-| played twice.
|---------------------------------------------------------------|
|---------------------------------------------------------------|
            And I drop      and I drop,    and my body levels drop
           And my nerves clogging up  sucking all the substance up

|-------------------------------------------------------------|
|-----3-----3-----3-----3-----3-----3-----3-----3-----3-----3-|
|---3-----3-----3-----3-----3-----3-----3-----3-----3-----3---|
|-5-----5-----5-----5-----5-----4-----4-----4-----4-----4-----|
|-------------------------------------------------------------|
|-------------------------------------------------------------|
   Redux,    redux,    redux,    redux,    redux,    redux,

|-----------------------------------3-----3-----3-----3-----3-|
|-----3-----3-----3-----3-----3---3-----3-----3-----3-----3---|
|---3-----3-----3-----3-----3---3-----3-----3-----3-----3-----|
|-3-----3-----3-----3-----3-----------------------------------|
|-------------------------------------------------------------|
|-------------------------------------------------------------|
   Redux,    redux,    redux,    redux,    redux,    redux,

|----10-10---8--8--6---5--5--1---1---3----3---|
|---------------------------------------------|
|---------------------------------------------|
|---------------------------------------------|
|---------------------------------------------|
|---------------------------------------------|
  My chemist is the only friend that I've got

cancer

CHORDS:

A: 577655
F#:244322
G: 355433
E: 012200
Dm:x57765
F: 133211

intro

|------------------------0-------------|
|-----------------0-----0--------------|
|-----------1---1------1---------------|
|-----2---2---2-------2----------------|
|---2---2------------2-----212121212---|
|-0-----------------0------------------|
 (    Palm mute    )

|--------------------------------------------------|
|--------------------------------------------------|
|--------------------------------------------------|
|--------------------------------------------------|
|-0-0-0-2-2-2-1-1-1s9-7-7--0-0-0-2-2-2-1-1-1s9-7-7-|
|--------------------------------------------------|

|--------------------------------------------------|
|--------------------------------------------------|
|--------------------------------------------------|
|--------------------------------------------------|
|-0-0-0-2-2-2-------9-7-7--0-0-0-2-2-2-------9-7-7-|
|-------------2-2-2--------------------2-2-2-------|

|--------------------------------------------------|
|--------------------------------------------------|
|--------------------------------------------------|
|--------------------------------------------------|
|-0-0-0-2-2-2-------8-7-7--0-0-0-2-2-2-------8-7-7-|
|-------------1-1-1--------------------1-1-1-------|

|--------------------------------------------------|
|--------------------------------------------------|
|--------------------------------------------------|
|--------------------------------------------------|
|-0-0-0-2-2-2-------8-7-7--0-0-0-2-2-2-------8-7-7-|
|-------------0-0-0--------------------0-0-0-------|

all played twice, but the first time it ends:
|-----------------|
|-----------------|
|-----------------|
|-----------------|
|-0-0-0-2-2-2-----|
|-------------4---|

and the second time it ends:
|--------------------------|
|--------------------------|
|--------------------------|
|--------------6--7-7-7-9--|
|-0-0-0-2-2-2--6--7-7-7-9--|
|--------------4--5-5-5-7--|

Then, the lyrics start to Chad's accompanyment of:

   A                      F
e|-----0----------0-----------------0-----0-5s0-|
B|---0---0-2-2------0-2-2-----1-0-------1-------|
G|-2------------2-----------2-----2---2---------|
D|------------------------3---------------------|
A|----------------------------------------------|
E|----------------------------------------------|

   E
e|-------------------------------------------|
B|-------------------------------------------|
G|-5-4--2-4-5--2-5-4-2---5-4--2-4-5--2-5-4-2-|
D|-------------------------------------------|
A|-------------------------------------------|
E|-------------------------------------------|

A few times.

Then we have the "I'm emotionally raped by Jesus" bit, which is
A F#m A F#m D E F#m

then, a pause. Then, the "What now of my faith..." bit, which is
e|--------12---------12-----12----------12~14-14-|
B|----------------------14-----14-12-------------|
G|-s11-13-----s11-13-----------------14----------|
D|-----------------------------------------------|
A|-----------------------------------------------|
E|-----------------------------------------------|

e|-14----------14-------12-----------------------|
B|----14-12-------14-12----14-------12-----------|
G|----------14----------------14-14----13-14~9---|
D|-----------------------------------------------|
A|-----------------------------------------------|
E|-----------------------------------------------|

also, a few times.

Then, the cher-chung! bit, which is the bottom two or three strings
of a B chord (024442), with this picked over it:

e|-------------------5-6-7--|
B|----7-6-----7-6-----------|
G|----------------7---------|
D|--9-------9---------------|
A|--------------------------|
E|--------------------------|

With various mutations of that played as well. Then, a piano break:
e|--14-11-14-11-14-11-14-11-14-11-14-11-16--18-16-14-11--|
B|-------------------------------------------------------|
G|-------------------------------------------------------|
D|-------------------------------------------------------|
A|-------------------------------------------------------|
E|-------------------------------------------------------| twice

e|-----12-11-----12-11-----12-11-----12-11-----5-2-----5-2-----5-2-----5-2-|
B|-------------------------------------------------------------------------|
G|-------------------------------------------------------------------------|
D|-------------------------------------------------------------------------|
A|---9---------9---------9---------9---------4-------4-------4-------4-----|
E|-7---------7---------7---------7---------2-------2-------2-------2-------|

e|-----5-1-----5-1-----5-1-----5-1-----4-0-----4-0-----4-0-----4-0-|
B|-----------------------------------------------------------------|
G|-----------------------------------------------------------------|
D|-----------------------------------------------------------------|
A|---3-------3-------3-------3-------2-------2-------2-------2-----|
E|-1-------1-------1-------1-------0-------0-------0-------0-------|

continuously.
After one time through, the guitars are back (yay) for another solo:

e|---------------------------------------------------------------------------|
B|---------------------------------------------------------------------------|
G|-9-8---------------------------9-8-----------------9-8-9-11--11/13---------|
D|-----9-7---------------------------9-7-------------------------------------|
A|----------------------------------------10-7----7--------------------------|
E|----------10-10/\-8-10-8-10-12---------------10--------------------10-10/\-|

e|----------------------------------------------------------------12/\----|
B|---------------------13-12-13-15----13-13-13-12-----------10-10------10-|
G|---------------------------------14-------------14--14-13---------------|
D|------------------------------------------------------------------------|
A|-----------------xxx----------------------------------------------------|
E|-8-10-8-10-12-7--xxx----------------------------------------------------|

e|-------12/---------------------3-0-----3-0-----0-------0-------0-------0---|
B|-10-10-----10-----13-----------------------------2-------2-------2-------2-|
G|---------------12----12-14-------------------------------------------------|
D|-----------------------------2-------2-------2-------2-------2-------2-----|
A|---------------------------0-------0-------0-------0-------0-------0-------|
E|---------------------------------------------------------------------------|

Then it's

A
I need replacement
Dm
To feel redefined
         F                   Dm
And it's just this matter of identity
A
You preach elastic
Dm
To your jagged flock
        F                 Dm
It's an eerie passion for self-flattery

e|-----5-------------2-----------------5-------------2-|
B|---5-------------2-----------------5-------------2---|
G|-----------------------------------------------------|
D|-7-------------4-----------------7-------------4-----|
A|-----------------------------------------------------|
E|-----------------------------------------------------|
Emotionally I'm wrapped in shame, Emotionally I feel I'm raped
Oh, emotionally in chains.

then there's a fuzzy version of the earlier riff, that goes something like this...
e|-------12-------12-------------12-------12-------12----------12-14-|
B|-------------------14-12----------14-12----14-12----14-12----------|
G|-11-13----11-13----------11-13----------------------------14-------|
D|-------------------------------------------------------------------|
A|-------------------------------------------------------------------|
E|-------------------------------------------------------------------|

e|----14----14-------14-------12----12---------------------------------------|
B|-14----14----14-12----14-12----14----14-14-------12-12---------------------|
G|-------------------------------------------14-14----13-13-14-9-9-9h11p9-11-|
D|---------------------------------------------------------------------------|
A|---------------------------------------------------------------------------|
E|---------------------------------------------------------------------------|

witness to a murder (part 2)

I don't recommend that you play both the high and low sections at the same time. It's
a bit tricky.

0:00
|----12----------12----------10---------10---------9--------9--------12----15----------|
|-------11-12-------11-12-------9-10-------9-10------7-8------7-8-10----10-----10-8-10-|
|--------------------------------------------------------------------------------------|
|--------------------------------------------------------------------------------------|
|-12----------------------12--------------------12-----------------12------------------|
|-------------12---------------------12------------------12-----------------12---------|

0:10
|----12----------12----------10---------10---------9--------9--------12----10---------|
|-------11-12-------11-12-------9-10-------9-10------7-8------7-8-10----10-----8-10-8-|
|-------------------------------------------------------------------------------------|
|-------------------------------------------------------------------------------------|
|-15----------------------13---------------------12----------------12-----------------|
|-------------15---------------------13------------------12-----------------12--------|

0:18
|---7-------7-------7-------7-------------10---12----10---------10---12----10-|
|-----7-8-----7-8-----7-8-----7-8---12-10---------10------12-10---------10----|
|-----------------------------------------------------------------------------|
|-----------------------------------------------------------------------------|
|-7---------------7---------------8---------------------8---------------------|
|---------7---------------7------------------5---------------------5----------|

0:27
|---7-------7-------7-------7--------12----------12----------10---------10------|
|-----7-8-----7-8-----7-8-----7-8-------11-12-------11-12-------9-10-------9-10-|
|-------------------------------------------------------------------------------|
|-------------------------------------------------------------------------------|
|-7---------------7---------------15-----------------------13-------------------|
|---------7---------------7-------------------15---------------------13---------|

0:35
|----9--------9--------9-------9-----9-----9-10--------|
|------7-8------7-8------7-8-----7-8---7-8------7-8-10-|
|------------------------------------------------------|
|------------------------------------------------------|
|----------13-------12---------------12----------------|
|-12-------------------------12---------------12-------|

SINGING STARTS, and the rest is just variations of above, starting with each
distinct section being played twice.

television

E 0.2.2.1.0.0
D 10.12.12.11.10.10
A 5.7.7.6.5.5
G 3.5.5.4.3.3
F 1.3.3.2.1.1
G# 4.6.6.5.4.4
C 8.10.10.9.8.8

strum all these chords QUICKLY
e-----------------------------------------------------------------------
B-------------------7777777777777777--8888888888888888--7777777777777777-
G-9999999999999999--8888888888888888--9999999999999999--8888888888888888-
D-7777777777777777--7777777777777777--7777777777777777--7777777777777777-
A-0000000000000000--0000000000000000--0000000000000000--0000000000000000-
E------------------------------------------------------------------------

1st part

'...hour' '...news' etc.
e--5------5---5-------7---------------------------------------------
B--5----5---5---5-----7------7---7------8-----8----8----8--10-------
G--6------------------8----8---9---8----9---9----9----9----11-------
D--7------------------9-----------------10-----------------12-------
A-------------------------------------------------------------------
E-------------------------------------------------------------------

2nd part

'...explode' '..gak' etc.
e--5-----5---5-----7------------------------------------------
B--5---5---5---5---7-----7---7-------8----8---8---8---10--11--
G--6---------------8---8---9---8-----9--9---9---9-----11--12--
D--7---------------9----------------10----------------12--13--
A-------------------------------------------------------------
E-------------------------------------------------------------

E
I scratch my knee
          D           A    G   F
I have to scratch the other,
G#
Documentaries are the best

e--5-------5---5------5------5---5---5---------------------
B--5-----5---5---5----5----5---5---5-----7------7---7---7--
G--6------------------6--------------------6--6---6---6----
D--7------------------7------------------------------------
A----------------------------------------------------------
E----------------------------------------------------------

it helps if you play the chord shapes instead of picking the notes one by one
the brackets mean you bend the note up to that note

  D              C              F               A
e------------0--------------0-------------0------------------------
B----------0--------------0---------1--0--------------2222---------
G---------------------------------------------------2--------------
D-------10------------10--------------------------2--------2-(3)-2-
A----12------------10-------------3-------------0------------------
E-10-------------8--------------1----------------------------------

  D            C           F                 A              E            G#
e------------0-----------0----------0---------------------------0-----------------
B----------0-----------0-------1-0---------------2--------------------------------
G-----------------------------------------------2---------------------------------
D-------10----------10------------------------2---------------2--------- 6--------
A----12----------10----------3---------------0---------------2-----------6--------
E-10-----------8-----------1--------------------------------0------------4--------

this is the fast part of the solo

e------------7---9---10---9-------------------12--15--12------15--12------15---12-
B---8---10-------------------10--8---12--15---------------12----------12----------
G-9---9----9---9---9----9---------------------------------------------------------
D---------------------------------------------------------------------------------
A---------------------------------------------------------------------------------
E---------------------------------------------------------------------------------

e------------7---9---10---9------------------------------------------------
B---8---10------------------10---8-----------------------------------------
G-9---9----9---9---9----9--------------------9--12--9-----12--9-----12---9-
D-------------------------------------9--12------------9---------9---------
A--------------------------------------------------------------------------
E--------------------------------------------------------------------------

e------------7---9---10---9-------------------12----15---12------15---12------15---12-
B---8---10--------------------10-8---12----15-----------------12-----------12--------
G-9---9----9---9---9----9---9---------------------------------------------------------
D-------------------------------------------------------------------------------------
A-------------------------------------------------------------------------------------
E-------------------------------------------------------------------------------------

this is the slow part of the solo, this bit is played twice

e----------------------------------------------------------
B-7-8-7----7-8-7---------------8--10---7-8-7---------------
G-----------------5-7-5------------------------5-7-5-------
D------------------------5-7---------------------------5-7-
A----------------------------------------------------------
E----------------------------------------------------------

E
I scratch my knee
          D           A     G   F   A   E
I have to scratch the other,
G#
Documentaries are the best

e--5-----5---5-------5-----5---5---5-----------------------
B--5---5---5---5-----5---5---5---5--------7----7---7---7---
G--6-----------------6----------------------6----6---6---6-
D--7-----------------7-------------------------------------
A----------------------------------------------------------
E----------------------------------------------------------

play the following bit seven times

    D                 C                  F                 A
e----------------0-----------------0-----------------0-------------------------
B--------------0-----------------0-------------1--0--------------2222----------
G---------------------------------------------------------------2--------------
D----------10---------------10-------------------------------2---------2-(3) 2-
A------12---------------10-----------------3---------------0-------------------
E---10----------------8------------------1-------------------------------------

When slower..
e--5----------5----5--------------5-------5---5---5------------------------
B--5-------5----5----5----------- 5-----5---5---5--------7------7---7---7--
G--6------------------------------6-----------------------6----6---6---6---
D--7------------------------------7----------------------------------------
A--------------------------------------------------------------------------
E--------------------------------------------------------------------------

'all my problems come'
    D                 C                  F                 A
e----------------0-----------------0-----------------0-------------5-
B--------------0-----------------0-------------1--0--------------5---
G---------------------------------------------------------------5----
D----------10---------------10-------------------------------6-------
A------12---------------10-----------------3---------------7---------
E---10----------------8------------------1---------------------------

special/blown it (delete as appropriate)

CHORDS
C  08.10.10.xx.xx.xx
F  xx.08.10.10.xx.xx
G  xx.10.12.12.xx.xx
G# xx.11.13.13.xx.xx
A# 06.08.08.xx.xx.xx
D# xx.11.13.13.xx.xx
g# 04.06.06.xx.xx.xx
g  03.05.05.xx.xx.xx
f  01.03.03.xx.xx.xx
A# xx.13.15.15.xx.xx
B. xx.14.16.16.xx.xx

"Special" intro
|--------|
|--------|
|--------|
|-9-9-9--|
|--------|
|--------|

Main intro
|----------------------------------------------------------------|
|------9/--11-11---------------9---------------------------------|
|----------10-10----------7/----10-------------------------------|
|-10-------------10--------------------10-9-------13s15----15----|
|-------------------10----------------------10----------15----15-|
|-----------------------8-----------8----------11----------------|

|------------------------------------------------------|
|-9--8-------------------------------------------------|
|-------7----------------------------------------------|
|----------8-10--------12------------------------------|
|--------------------------10-8-10--10-8-----11s13--14-|
|-----------------11---------------------8-------------|

|--------------------------------------------3--|
|-------------------------------------------4---|
|-----3-------0-------0-------0------------5----|
|---5---5---0---0---0---0---0-------------------|
|-3-------1-------------------------13-14-------|
|-----------------4-------3-----1---------------|

then repeat all that, and also play:

|----------------------------------------------------|
|----------------------------------------------------|
|---------------------------------------------12-----|
|--13--12--10----12--12--13--12--10----9--10------12-|
|----------------------------------------------------|
|----------------------------------------------------|

and continue to swirl about on those notes for a while, including this bit:

|-------------------------------------------------------------|
|-------------------------------------------------------------|
|-------------------------------------------------------------|
|-13---12-13-12-13-12-13-12-13-12-10---12s17-12---------------|
|-------------------------------------------------13---13-14--|
|-------------------------------------------------------------|

Anyway, that goes on for a while. Then, we get into the meat
of Special Blown It (as it's known to it's friends), which is:

C                F            C
I've blown it in every single way,
              F      G           G#
screwed every single chance that came
G        C             A#                     G#
You're a super star in waiting for the silver screen
                       D#                  F
Then the pressure came - swept away in a tidal wave
         C
Could be all of you, still awake at noon
D#                     C                     G#
Blew my chances in a tragic flurry, sweeping apathy
G                       A#                 G#
Buy all my food from the BP store when the night kicks in

C              F            C
I'm turning my back on everyone
                F          G    G#
I've blown everything I've ever done

     C             A#
I've fucked it up, shot my load
g#              g        f
Spewed onto the motorway shoulder
  g#                       g
I could have been somebody special

I'm not such a tragic waste of space
I could bring happiness to people
Just one more greatest hits tour for the devotees
The same old faces came
They love their summer spectaculars
By the grace of God could be up by noon
And not a tragic waster but I can't stay focused for my apathy
They could have bought me a brand new car and a house in France
I've really blown it now
Blew it all away on a whim
Fucked it up, shot my load
Spewed onto the motorway shoulder
I could have been somebody special

C         F               C
Sat on my own for far too long
                  F       G         G#
Things could have been so different now
G      C                A#                       G#
       Life looks so confusing through my window bay
                   D#                           F
Just to see a face, I'm really pleased when the gas man comes
         C
Could be all of you, still awake at noon
D#                     C              F
Blew my chances in a tragic flurry of apathy
D#                       A#                 G#
    all my food from the BP store when the night kicks in

D#          C
I've really blown it now
        G#       A#  B
Blew it all awayay
     C             A#
I've fucked it up, shot my load
g#              g        f
Spewed onto the motorway shoulder
  g#                       g
I could have been somebody special

legacy

Main Riff:

e----------0---------------------0-------------
b------4-----4--------------4------4-----------
g----4---4-----4---4------6---6------6---6-----
d--2-------------2----4/6--------------6-------
a----------------------------------------------
E----------------------------------------------

"I wouldn't care if..." bit:

e------------0-----------0---0----
b--------------0---0-----0---0----
g----------------3---3---4---9----
d------4-----------------5--10----
a----4---4---------------5--10----
E--2---------------------3---8----

"Reading novels is banned...": A#, G#, A#

Chorus

Main riff, followed by:

e--4--4--
b--5--5--
g--6--3--
d--7-----
a--0-----
E--------

Done from memory, so don't sue me.

Cheers.

being a girl

G#5 466xxx
E5  022xxx
B5  x244xx
C#5 x466xx
G#  466544
E   022100
B   x24442
C#  x46664
F#  244322
PLAY CHORDS IN BRACKETS SOFTLY.

G#5 G#5 G#5 G#5 E5 E5 E5
B5 B5 B5 B5 C#5 C#5 C#5
G#5 G#5 G#5 G#5 E5 E5 E5
B5 B5 B5 B5 C#5 C#5 C#5

G#5 G#5 G#5 G#5 E5 E5 E5 B5 B5 B5 B5 C#5 C#5 C#5
Being   a    boy's like sucking on a lemon

G#5 G#5 G#5 G#5 E5 E5 E5 B5 B5 B5 B5 C#5 C#5 C#5
And I judge myself by the adverts   I   see

G#5 G#5 G#5 G#5 E5 E5 E5 B5 B5 B5 B5 C#5 C#5 C#5
My d e o d o r a n t     hides the   real me

G#5 G#5 G#5 G#5 E5 E5 E5 B5 B5 B5 B5 C#5 C#5 C#5
These things    elevate  me above    animals

  C#   C#
I feel like being a girl

E
Being a girl

G#
Being a girl

E
Being a girl

G#
Being a girl
                  C#     E     F#     G#
Yeah, hoh, and my life's never tasted sweeter ho ho ho

(interlude)

G#5 G#5 G#5 G#5 E5 E5 E5 B5 B5 B5 B5 C#5 C#5 C#5
I'm so        boring my clothes wanna keep

G#5 G#5 G#5 G#5 E5 E5 E5 B5 B5 B5 B5 C#5 C#5 C#5
Someone else    warm,    someone     cooler

G#5 G#5 G#5 G#5 E5 E5 E5 B5 B5 B5 B5 C#5 C#5 C#5
Tax on      cigarettes   treats my   cancer

G#5 G#5 G#5 G#5 E5 E5 E5 B5 B5 B5 B5 C#5 C#5 C#5
These things   elevate me above      animals

  C#   C#
I feel like being a girl

E
Being a girl

G#
Being a girl

E
Being a girl

G#
Being a girl
                  C#     E     F#     G#
Yeah, hoh, and my life's never tasted sweeter ho ho ho

 G#
Being a girl

 E
Being a girl

 B
Being a girl

 C#
Being a girl

 G#
Being a girl

 E
Being a girl

 B     C#    C#
Being a feels like being a girl

E
Being a girl

G#
Being a girl

E
Being a girl

G#
Being a girl
                  C#     E     F#     G#
Yeah, hoh, and my life's never tasted sweeter ho ho ho

****Part 2****

Amaj7: x02020  }  I know these chords are right,
Amin7: x02010  }  because Chad told me them!
Dmaj7: xx0212
Dmin7: xx0210

Intro
Amaj7 Amin7  Amaj7 Amin7  Dmaj7 Dmin7  Dmaj7 Dmin7

|-0------------------------------0------2---3--0-------|
|-3------------------------------1------1---1--1-------|
|-2------------------------------2------2---2--2-------|
|-3------------------------------3------0---0--0-------|
|------------------------------------------------------|
|------------------------------------------------------|
A frog, it cannot comprehend the sea,   nor me happiness
 Girl is much to weak a word for me   Made from balsa wood

|------5------5--5-8-7/\-5-----5-|
|--------------------------8-8---|
|----5------5--------------------|
|--7------7----------------------|
|--------------------------------|
|--------------------------------|
Being a girl, being a girl
I want to experience being a girl
I want to experience being a girl
I want to experience being a girl

|-----------------------|
|-----------------------|
|-----------------------|
|---------5-4-0-----0---|
|-0-0-0-3-------3-3---0-|
|-----------------------|

|---0---------------------------------0-----2----3--0-------|
|---3---------------------------------1-----1----1--1-------|
|---2---------------------------------2-----2----2--2-------|
|---3---------------------------------3-----0----0--0-------|
|-----------------------------------------------------------|
|-----------------------------------------------------------|
The only pureness left is preached by Marx, time to contemplate
Never been informed there must be poor, or the rich won't be rich anymore

|----------------------5-8-7/\-5-----5-|
|------57575-----57575-----------8-8---|
|----5---------5-----------------------|
|--7---------7-------------------------|
|--------------------------------------|
|--------------------------------------|
Being a girl, being a girl
I want to experience being a girl
I want to experience being a girl
I want to experience being a girl
I want to experience being a girl
I want to experience being a girl
I want to experience being a girl
I want to expuh...

|----12h14p12-------12h14p12----12h14p12-|
|-14----------12h13----------14----------|
|----------------------------------------|
|----------------------------------------|
|----------------------------------------|
|----------------------------------------|

|----------12h14p12-------12h14p12-------|
|-12h13-13----------12-13----------12h13-|
|----------------------------------------|
|----------------------------------------|
|----------------------------------------|
|----------------------------------------|

|------------------------------|
|------------------------------|
|---------0-2------------------|
|-------------0-----0----------|
|-0-0-0-3-------3-3---0--0-3-2-|
|------------------------------|

|-----------3---3-2/\------------------|
|-----1---------------3-1-1-3----------|
|-2-2---2-2---2---------------2----0---|
|--------------------------------2---4-|
|--------------------------------------|
|--------------------------------------|

|-----------3---3-2/\------------------|
|-----1---------------3-1-1-3----------|
|-2-2---2-2---2---------------2----0---|
|--------------------------------2---4-|
|--------------------------------------|
|--------------------------------------|
The only pureness left is preached for me by Marx

|-----------3---3-2/\-----------------|
|-----1---------------3-1-1-3---------|
|-2-2---2-2---2---------------2---0---|
|-------------------------------2---4-|
|-------------------------------------|
|-------------------------------------|
The only pureness left is preached for me by Marx

|-----------3-/5-3-0-3-0-/5-------------3p0-3p0-|
|-----1---------------------1p0-1p0-------------|
|-2-2---2-2-------------------------------------|
|-----------------------------------------------|
|-----------------------------------0h2---------|
|-----------------------------------------------|
 The only pureness left is preached by

|-----------3---3-2/\-----------------|
|-----1---------------3-1-1-3---------|
|-2-2---2-2---2---------------2---0---|
|-------------------------------2---4-|
|-------------------------------------|
|-------------------------------------|
Marx

|----12h14p12-------12h14p12----12h14p12-------|
|-14----------12h13----------14----------12h13-|
|----------------------------------------------|
|----------------------------------------------|
|----------------------------------------------|
|----------------------------------------------|

|------------------------|
|------------------------|
|-----1----2-0-----------|
|---2----2-----4-2--1-2--|
|-0-----0----------------|
|------------------------| repeatedly

|-16---------------------| with assorted
|---------------12-------| effects
|------------------------|
|------------------------|
|------------------------|
|------------------------|

|------------------------|
|------------------------|
|-----1----2-0-----------|
|---2----2-----4-2--1-2--|
|-0-----0----------------|
|------------------------| repeatedly