Manuel De Falla - Dance Of The Corregidor La Danza Del Corregidor Text Guitar Tab

Learn the song with the online tablature player
Rhythm:
  w = whole note             $ =  whole rest
  h = half note              & =  half rest
  q = quarter note           з =  quarter rest
  e = eighth note            + =  eighth rest
  s = sixteenth note         ; =  sixteenth rest

Arrangement for two guitars
Tunning
Guitar 1 : E A D G B e
Guitar 2 : D A D G B e

Danza del Corregidor

Time signature:  3/4
Tempo: Allegretto=100

     e  +  e  +  e  +   e  + s  s  s  s s  s  s s  s s

e||-12----12----12---|-12----9-10-12-10-9--------------|
B||-10----10----10---|-10-----------------12-10-9------|
G||--9-----9-----9---|--9-------------------------11-9-|
D||-11----11----11---|-11------------------------------|
A||--0-----0-----0---|--0------------------------------|
E||------------------|---------------------------------|
 ||                                                    |
 ||                                                    |
 ||  e  +  e  +  e  +   e    +    e      +      з      |
 ||                                                    |
e||--0-----0-----0---|--0---------5--------------------|
B||--2-----2-----2---|--2---------5--------------------|
G||--2-----2-----2---|--2---------6--------------------|
D||--2-----2-----2---|--2---------7--------------------|
A||--0-----0-----0---|--0------------------------------|
D||------------------|---------------------------------|

    e  +  e  +  e  +   e   s s s s s s s s s s

e|-------14----14---|-14---2-4-5-4-2-----------|
B|-------15----15---|-15-------------5-3-2-----|
G|-------14----14---|-14-------------------4-2-|
D|-12-----0-----0---|--0-----------------------|
A|------------------|--------------------------|
E|------------------|--------------------------|
 |                                             |
 |                                             |
 |  з    e  +  e  +   e   +   e    +    з      |
 |                                             |
e|--------2-----2---|--2-------2---------------|
B|--------3-----3---|--3-------3---------------|
G|--------2-----3---|--2-------2---------------|
D|--------4-----4---|--4-------0---------------|
A|--------0-----0---|--0-----------------------|
D|--------0-----0---|--0-----------------------|

   e  e  e  e      e s s   e  e  e  e      e s s

e|-----------------------|-----------------------|
B|----5-----5--2^3^2-----|----5-----5--2^3^2-----|
G|-4-----4-----------4-2-|-4-----4-----------4-2-|
D|-2--6--2--6------------|-2--6--2--6------------|
A|-----------------------|-----------------------|
E|-----------------------|-----------------------|
 |   leggiero                                    |
 |                                               |
 |                                               |
 | e  e  e  e  e    +      e  e  e  e  e    +    |
 |                                               |
e|-----------------------|-----------------------|
B|-----------------------|-----------------------|
G|-----------------------|-----------------------|
D|-------------2---------|-------------2---------|
A|-------------0---------|-------------0---------|
D|-6--2--6--2------------|-6--2--6--2------------|

   q    e    s s e  s s   q    e   s s e  s s

e|-5---(5)---7-5-4--2-4-|-5---(5)--7-5-4--2-4-|
B|----------------------|---------------------|
G|----------------------|---------------------|
D|----------------------|---------------------|
A|----------------------|---------------------|
E|----------------------|---------------------|
 |                                            |
 |                                            |
 | e  s s e  e   e   e    e  s s e  e  e  e   |
 |               e                     e      |
e|----------------------|---------------------|
B|---------------0------|--------------0------|
G|----------------------|---------------------|
D|-1------1------2------|-1------1-----2------|
A|----2-4----2------4---|----2-4----2-----4---|
D|----------------------|---------------------|

   e  s s e  s s e  s s   s s s s  e  e   e  e

e|-5--7-5-4--2-4-5--7-5-|-4---5-7-12-----------|
B|----------------------|---5------------10----|
G|----------------------|-------------9--------|
D|----------------------|--------------------7=|
A|----------------------|----------------------|
E|----------------------|----------------------|
 |                                             |
 |                                             |
 | e  e   e  e   e  e     h              q     |
 | e      e      e        h                    |
e|----------------------|----------------------|
B|-0------0------0------|-0--------------------|
G|----------------------|----------------------|
D|-1------1------1------|-2--------------------|
A|----2------2------2---|----------------2-----|
D|----------------------|----------------------|

   q     e    s s  e  e   q     s  s s s s s s s
   h               q      h
e|----------------------|----------5---5---5-----|
B|----------------------|-5----(5)---9---7-----7-|
G|-11---(11)--9-7-------|--------------------7---|
D|=(7)------------11--9-|-7----------------------|
A|----------------11----|------------------------|
E|----------------------|------------------------|
 |                                               |
 |                                               |
 | e   e   e   e  e  e    e  e  e    e   e   e   |
 |                                               |
e|----------------------|------------------------|
B|----------------------|------------------------|
G|----------------------|------------------------|
D|----------------2-----|--------------------4---|
A|-5---2---4---5-----5--|-4--0--2----4---5-------|
D|----------------------|------------------------|

   q    s      s s s s s s s    q    s    s  s  s  s  s  s  s
   q    h                       q    s
e|-------------5---5---5-----|-12--(12)--17-16-17-14-17----14-|
B|-5---(5)-------9---7-----7-|-14--(14)-----------------15----|
G|-6---------------------7---|--------------------------------|
D|------------------------|--------------------------------|
A|---------------------------|--------------------------------|
E|---------------------------|--------------------------------|
 |                                                            |
 |                                                            |
 | e    e    e    e    e    e      e    e    e   e   e   e    |
 |                                 e                          |
e|------------------------------|-----------------------------|
B|------------------------------|-10---------------------7----|
G|------------------------------|--------------------7--------|
D|-7-------------------0----4---|--7----7----9--11------------|
A|------0----2----4-------------|-----------------------------|
D|------------------------------|-----------------------------|

    s  s  s  s  q          q     q      s  s s s s s s s
                                        h
e|----17-14--------------------|-5-----(5)-5---5---5-----|
B|-17-------15-14---12^14^12---|-------------9---7-----7-|
G|-----------------------------|---------------------7---|
D|-----------------------------|----------------------|
A|-----------------------------|-------------------------|
E|-----------------------------|-------------------------|
 |                                                       |
 |                                                       |
 |  e    e     q     q           e  e   e    e   e   e   |
 |                   e                                   |
e|-----------------------------|-------------------------|
B|-------------------9---------|-------------------------|
G|--6----7-----9-----7---------|-6-----------------------|
D|-----------------------------|-7---------------0---4---|
A|-------------------7---------|----0-h-2-h--4-----------|
D|-----------------------------|-------------------------|

   q    s     s s s s s s s   q    s     s s s s s s s
   q    h                     q    h
e|------------5---5---5-----|------------5---5---5-----|
B|-5---(5)------9---7-----7-|-5---(5)------9---7-----7-|
G|-6--------------------7---|-6--------------------7---|
D|-----------------------|-----------------------|
A|--------------------------|--------------------------|
E|--------------------------|--------------------------|
 |                                                     |
 |                                                     |
 | e   e   e    e   e   e     e   e   e    e   e   e   |
 |                                                     |
e|--------------------------|--------------------------|
B|--------------------------|--------------------------|
G|--------------------------|--------------------------|
D|-7----------------0---4---|-7----------------0---4---|
A|-----0-h-2-h--4-----------|-----0-h-2-h--4-----------|
D|--------------------------|--------------------------|

   s s s s q    q     h        з
e|---5--------------|----------------|
B|-5---7------------|----------------|
G|-------7-6----4---|-2--------------|
D|--------------6---|----------------|
A|--------------5---|-4--------------|
E|------------------|----------------|
 |                                   |
 |                                   |
 | e   e   q    q     q    q    q    |
 |                                   |
e|------------------|----------------|
B|------------------|----------------|
G|------------------|----------------|
D|---------2--------|----------------|
A|-4-h-5------------|-0---------0----|
D|--------------2---|------2---------|

   e  +  e  +  e  +  e   s s s s s s s s s s

e|-5-----5-----5---|-5---2-3-5-3-2-----------|
B|-3-----3-----3---|-3-------------5-3-2-----|
G|-2-----2-----2---|-2-------------------4-2-|
D|-4-----4-----4---|-4-----------------------|
A|-----------------|-------------------------|
E|-----------------|-------------------------|
 |                                           |
 |                                           |
 | e  +  e  +  e  +  e   +   e    +    з     |
 |                                           |
e|-2-----2-----2---|-2-------2---------------|
B|-3-----3-----3---|-3-------3---------------|
G|-2-----2-----2---|-2-------2---------------|
D|-0-----0-----0---|-0-------0---------------|
A|-0-----0-----0---|-0-----------------------|
D|-0-----0-----0---|-0-----------------------|

   e  +  e  +  e  +   e   s s  s s s  s s s s s

e|-------7-----7----|-7---7-9-10-9-7------------|
B|-------0-----0----|-0--------------10-8-7-----|
G|-------0-----0----|-0---------------------9-7-|
D|-5-----0-----0----|-0-------------------------|
A|------------------|---------------------------|
E|------------------|---------------------------|
 |                                              |
 |                                              |
 |   з   e  +  e  +   e   s s s  s s s  s s s s |
 |                                              |
e|-------3-----3----|-3-------------------------|
B|-------0-----0----|-0-------4-----------------|
G|-------0-----0----|-0---5-7----7-5-4----------|
D|-------0-----0----|-0-----------------7-5-4-2-|
A|-------2-----2----|-2-------------------------|
D|------------------|---------------------------|

   s s e  s s e  e   e   s s  e  s s  e   e  e

e|-----0------0--------|--------------------14-|
B|-------------------8-|-7h8-10--7h8-10-----10-|
G|-6h7-0--6h7-0--6---0-|-7h9-11--7h9-11-----11-|
D|---------------------|-----------------12----|
A|---------------------|-----------------------|
E|---------------------|-----------------------|
 |                                             |
 |                                             |
 | s s e  s s e  s s e   s s  e  s s  e  s s  e|
 |                                             |
e|---------------------|-----------------------|
B|---------------------|-----------------------|
G|---------------------|-----------------------|
D|-0h2-4--0h2-4--0h2-4-|------4-------4-------0|
A|---------------------|-0h5-------5-------0---|
D|---------------------|---------4-------0-----|

     s  s  s s  s  s s s s s s s   q       з        з

e|(14)-12-10-9-------------------|-------------------------|
B|(10)---------12-10-8-7-5-------|-------------------------|
G|(11)---------------------7-6-4-|-2-----------------------|
D|-------------------------------|-------------------------|
A|-------------------------------|-4-----------------------|
E|-------------------------------|-------------------------|
 |                                                         |
 |                                                         |
 | e    +     +      e     з       s s s s s s s s s s s s |
 |                                                         |
e|-2-----------------0-----------|-------------------------|
B|-3-----------------0-----------|-------------------------|
G|-0-----------------1-----------|-------------------------|
D|-4-----------------2-----------|-------0-2-0-------------|
A|-2-----------------2-----------|-0-2-4-------4-2-0-------|
D|-------------------------------|-------------------5-4-2-|

   e  +  e  +  e  +   e    s s s s s s s s s s

e|-5-----5-----5----|-5----2-3-5-3-2-----------|
B|-3-----3-----3----|-3--------------5-3-2-----|
G|-2-----2-----2----|-2--------------------4-2-|
D|-4-----4-----4----|-4------------------------|
A|------------------|--------------------------|
E|------------------|--------------------------|
 |                                             |
 |                                             |
 | e  +  e  +  e  +   e   +    e   +   e   +   |
 |                                             |
e|-2-----2-----2----|-2--------2-------2-------|
B|-3-----3-----3----|-3--------3-------3-------|
G|-2-----2-----2----|-2--------2-------2-------|
D|-0-----0-----0----|-0--------0-------0-------|
A|-0-----0-----0----|-0------------------------|
D|-0-----0-----0----|-0------------------------|

   e  +  e  +  e  +   e    s  s s  s s s s s s s

e|-------7-----7----|-7---------7-----------------|
B|-------0-----0----|-0----8-10---10-8-7----------|
G|-------0-----0----|-0------------------9-7------|
D|-5-----0-----0----|-0----------------------11-9-|
A|------------------|-----------------------------|
E|------------------|-----------------------------|
 |                                                |
 |                                                |
 |   з   e  +  e  +   e    s  s s  s s s s s  s s |
 |                                                |
e|-------3-----3----|-3----0--2-3--2-0------------|
B|-------0-----0----|-0----------------3-2--------|
G|-------0-----0----|-0--------------------4--2---|
D|-------0-----0----|-0-------------------------5-|
A|-------2-----2----|-2---------------------------|
D|------------------|-----------------------------|

   s s  e  s s  e  e   e   s s  e  s s  e  e   e

e|---------------------0-|---------------------7-|
B|---------------------8-|-3-5--7--3-5--7--0-----|
G|------9-------9--------|-4-6--7--4-6--7------7-|
D|-8h9-11--8h9-11--8-----|-----------------------|
A|-----------------------|-----------------------|
E|-----------------------|-----------------------|
 |                                               |
 |                                               |
 | s s  e  s s  e  s s  e  s s  e  s s  e  s s  e|
 |                                               |
e|-----------------------|-----------------------|
B|-----------------------|-----------------------|
G|------3-------3-------3|-----------------------|
D|-4h6-----4h6-----4h6---|------4-------4-------4|
A|-----------------------|-2h5-------5-------2---|
D|-----------------------|---------4-------0-----|

   s s s s s s s s s s s s   e    +    з     з

e|-------------------------|-----------------------|
B|-8-7---------------------|-----------------------|
G|-----9-7-6---------------|-----------------------|
D|-----------9-8-5-4-------|-----------------------|
A|-------------------7-5-4-|-2---------------------|
E|-------------------------|-----------------------|
 |                                                 |
 |                                                 |
 | e   +   +   e     з       + s s s s s s s s s s |
 |                                                 |
e|-------------------------|-----------------------|
B|-0-----------------------|-----------------------|
G|-0-----------------------|-----------------------|
D|-2-----------4-----------|---4-2-----------------|
A|-2-----------4-----------|-------5-4-2-4-5-4-2-0-|
D|-------------4-----------|-----------------------|

     з   e  +  e  +   e    s  s  s  s  s  s  s  s  s  s

e|-------7-----7----|-7---10-12-14-12-10----------------|
B|-------5----10----|-9------------------14-12-10-12-14-|
G|-------7-----7----|-7---------------------------------|
D|------------------|-----------------------------------|
A|------------------|-----------------------------------|
E|------------------|-----------------------------------|
 |                                                      |
 |                                                      |
 | e  +  e  +  e  +   e      +        з         з       |
 |                                                      |
e|------------------|-----------------------------------|
B|------------------|-----------------------------------|
G|------------------|-----------------------------------|
D|-------6-----4----|-2---------------------------------|
A|------------------|-----------------------------------|
D|-6-----6-----4----|-2---------------------------------|

    e  +  e  +  e  +   e    s s  s s  s  s s  s s  s

e|-10----10----10---|-10-----------------------------|
B|--------9----10---|--9-----------------------------|
G|--------7-----7---|--7------9-11-9-----------------|
D|------------------|------12--------12-11-9----9-11-|
A|------------------|------------------------12------|
E|------------------|--------------------------------|
 |                                                   |
 |                                                   |
 |   з   e  +  e  +    e      +      з      з        |
 |                                                   |
e|------------------|--------------------------------|
B|------------------|--------------------------------|
G|------------------|--------------------------------|
D|-------2-----3----|--2-----------------------------|
A|------------------|--------------------------------|
D|-------2-----3----|--2-----------------------------|

    e  s  s  s  s  s  s  s  s  s  s    s  s  s  s  s  s  s  s  s  s  s  s

e|----10-12-14-12-10----------------|-10-12-14-12-10-12-10----------------|
B|-------------------14-12-10-12-14-|----------------------14-12-14-12-10-|
G|----------------------------------|-------------------------------------|
D|-12-------------------------------|-------------------------------------|
A|----------------------------------|-------------------------------------|
E|----------------------------------|-------------------------------------|
 |                                                                        |
 |                                                                        |
 |  e       +       з        з         s  s  s  s  s  s  s  s  s  s  s  s |
 |                                                                        |
e|----------------------------------|--------2----------------------------|
B|--0-------------------------------|--3--5-----5--3--5--3----------------|
G|--1-------------------------------|-----------------------6--4--6--4--2-|
D|--2-------------------------------|-------------------------------------|
A|--2-------------------------------|-------------------------------------|
D|----------------------------------|-------------------------------------|

   s  s  s  s s  s s  s s  s  s s

e|--------------------------------|
B|-9-10-12-10-9-10-9--------------|
G|-------------------11-9---------|
D|------------------------12-11-9-|
A|--------------------------------|
E|--------------------------------|
 |                                |
 |                                |
 | s  s  s  s s  s s  s s  s  s s |
 |                                |
e|--------------------------------|
B|--------------------------------|
G|-1--2--4--2-1--2-1--------------|
D|--------------------4-2---------|
A|-------------------------5--4-2-|
D|--------------------------------|

    e  +  e  +  e  +   e   s  s  s  s s  s  s s  s s

e|-------12----12---|-12---9-10-12-10-9--------------|
B|-------10----10---|-10----------------12-10-9------|
G|--------9-----9---|--9------------------------11-9-|
D|-------11----11---|-11-----------------------------|
A|-12-----0-----0---|--0-----------------------------|
E|------------------|--------------------------------|
 |                                                   |
 |                                                   |
 |  e  +  e  +  e  +   e    +    e     +     з       |
 |                                                   |
e|------------------|------------5-------------------|
B|------------------|------------5-------------------|
G|--------2-----2---|--2---------6-------------------|
D|--------2-----2---|--2---------7-------------------|
A|--0-----0-----0---|--0-----------------------------|
D|------------------|--------------------------------|

   e  +  e  +  e  +   e   s s s s s s s s s s

e|------14----14---|-14---2-4-5-4-2-----------|
B|------15----15---|-15-------------5-3-2-----|
G|------14----14---|-14-------------------4-2-|
D|-12----0-----0---|--0-----------------------|
A|-----------------|--------------------------|
E|-----------------|--------------------------|
 |                                            |
 |                                            |
 |  з    e  +  e  +   e   +   e   +    з      |
 |                                            |
e|-----------------|----------2---------------|
B|-----------------|----------3---------------|
G|-----------------|----------2---------------|
D|-------0-----0---|--0-------0---------------|
A|-------0-----0---|--0-----------------------|
D|-------0-----0---|--0-----------------------|

   e  e  e  e   e         e  e  e  e   e
   q     e  s s s s s s   q     e  s s s s s s
e|----------------------|----------------------|
B|----5-----------------|----5-----------------|
G|-4-----4--7---6-------|-4-----4--7---6-------|
D|-6-----6--4h6-7-6-7p4-|-6-----6--4h6-7-6-7p4-|
A|----------------------|----------------------|
E|----------------------|----------------------|
 |                                             |
 |                                             |
 | q     e  e   e   e     q     e  e   e   e   |
 | +  q     q       e     +  q     q       e   |
e|----------------------|----------------------|
B|----------------------|----------------------|
G|----------------------|----------------------|
D|-0----(0)---------4---|-0----(0)---------4---|
A|----------2---0-------|----------2---0-------|
D|----0-----0-------0---|----0-----0-------0---|

Time signature: 2/4

      з    e   e   e  s s e   e    e  e  e  e

e|---------7--12-|-9--7-5-7--10--|-9--5-----0--|
B|---------------|---------------|-------0-----|
G|---------------|---------------|----------1--|
D|---------------|---------------|-------2-----|
A|---------------|---------------|-------------|
E|---------------|---------------|-------------|
 |                                             |
 |                                             |
 |    з    e   e   q      e   e    q     e  e  |
 |                                             |
e|---------0·--4·|-0·-----2·--4·-|-0·----------|
B|---------------|---------------|-------------|
G|---------1·----|-2·------------|-2·----------|
D|-------------2·|--------0·--2·-|-------------|
A|---------------|---------------|-------------|
D|---------------|---------------|-------6·-2·-|

   e   s s e  e    q     e     +

e|---------------|------------------|
B|-2-------------|------------------|
G|-----4-2-4--6--|-7----(7)---------|
D|---------4--6--|------------------|
A|---------------|------------------|
E|---------------|------------------|
 | poco rit          a tempo        |
 |                                  |
 | e   e   e  e    q       з        |
 |                                  |
e|---------------|------------------|
B|---------------|------------------|
G|---------------|------------------|
D|---------------|------------------|
A|-0·--4·--5·-2·-|-0----------------|
D|---------------|------------------|

   &                  &
e|------------------|------------------|
B|------------------|------------------|
G|------------------|------------------|
D|------------------|------------------|
A|------------------|------------------|
E|------------------|------------------|
 |                                     |
 |                                     |
 | ;  s s s s s s s   e  e  e  e       |
 |                                     |
e|------------------|------------------|
B|------------------|------------------|
G|------------------|------------------|
D|----7·6·4·--------|------------------|
A|----------7·5·4·--|-4·-7·-0·-4·------|
D|----------------7·|------------------|

   q     q       q     з      e  +  e  +   q

e|-------------|-5----------|------------|----------||
B|-------5-----|-5----------|------------|----------||
G|-6-----4-----|-6----------|-6-----6----|-6--------||
D|-6-----6-----|-7----------|-7-----7----|-7--------||
A|-7-----7-----|------------|-7-----7----|-7--------||
E|-9-----------|------------|------------|----------||
 |                            quasi lento           ||
 |                                                  ||
 | e  e  e  e    q     з      e  +  e  +   q        ||
 |                                                  ||
e|-------------|------------|------------|----------||
B|-------------|------------|------------|----------||
G|-------------|------------|------------|----------||
D|-------------|------------|-2-----2----|-2--------||
A|----0·-4·-7·-|-0·---------|-0-----0----|-0--------||
D|-2·----------|------------|------------|----------||

                                         Tempo Beats
                                         /---------\
                                         |   |   |
E|------|-------|-------|----(0----|--------0===|---------|---------|-------|
B|------|-------|-------|----)1----|------1=----|---------|---------|-------|
G|--|--5h8--|--8p5--|----(2----|----2=------|---^5----|--8·-----|-9(tr)-|
D|------|-------|-------|----)2----|------------|---------|---------|-------|
A|------|-------|-------|----(0----|0==---------|---------|---------|-------|
E|------|-------|-------|----------|------------|---------|---------|-------|

 Harmonic Hammer   Pull  Arpeggiate   Sustain     Mordent  Staccatto  trill
            on      off

Rhythm:
  w = whole note             $ =  whole rest
  h = half note              & =  half rest
  q = quarter note           з =  quarter rest
  e = eighth note            + =  eighth rest
  s = sixteenth note         ; =  sixteenth rest

whole note     -  semibreve
half note      -  minim
quarter note   -  crotchet
8th note       -  quaver
16th note      -  semiquaver