Manuel Maria Ponce - Prelude No 2 In A Text Guitar Tab

Learn the song with the online tablature player
12 Preludes - Prelude No 2 in A (Book 1) - Manuel Maria Ponce (1882-1948)

fingering by Andres Segovia

 Vivo (Lively)

   a   m i        a       a
                      i   m      i   p   p
1  |   |   |      |   |   |      |   |   |      |   |   |      |   |   |
|--------------|--------------|--------------|--------------|--------------|
|--5h7-5-------|--5=======5===|======5=======|--5--p3---3---|--3h5-3-2-----|
|--------------|--------------|--------------|--------------|--------------|
|--------------|--------------|--------------|--------------|--------------|
   2 4 2 4 3 1    2                  2          4   2
                      4   3      1   4   3      1
                                                3
 f (loud)

                                                CII.....
6  |   |   |      |   |   |      |   |   |      |   |   |      |   |   |
|--------------|--------------|--------------|--------------|--------------|
|--3--p2---3===|======3=======|--3--p2---2---|--2h3-2h3-5---|----------0---|
|--------------|--------------|--------------|--------------|--------------|
   2   1   2                     4   2                  2
           3      1   1   3      1                             3   4
                                 3                             1
 > (gradually becoming softer)                f              p (soft)

   CII.........                  CII.......................................
11 |   |   |      |   |   |      |   |   |      |   |   |      |   |   |
|--------------|--------------|--------------|--------------|--------------|
|--2-----3-5===|======--0---0-|--2-----3-2===|====3-2-----3-|--2-----3-2===|
|--------------|--------------|--------------|--------------|--------------|
         2 4
                  3              3              2
                               cresc (gradually getting louder)............

16 |   |   |      |   |   |      |   |   |      |   |   |      |   |   |
|--------------|--------------|--------------|--------------|--------------|
|====3-2-----3-|--5-----7-5===|====7-5-----7-|--5-----7-5===|====7-5-------|
|--------------|--2-----------|--------------|--2-----------|------------7-|
|--------------|--4-----------|--------------|--4-----------|--------------|
     2 1          4     4 1        4 1     4    4     4 1        4 1     4
                  1              3              1
                  3              2              3
 < (gradually getting louder).................

21 |   |   |      |   |   |      |   |   |      |   |   |      |   |   |
|--------------|--------------|--------------|--------------|--------------|
|--0-----2-0===|====2-0-----2-|--0-----2-0===|====2-0-----2-|--0-----2-0===|
|--------------|--------------|--------------|--------------|--------------|
|--------------|--0=======----|--------------|--------------|--------------|
         4          2       2          2          2            3     2
   3                             1
   2                             3
                      dim (gradually becoming softer)             <........

26 |   |   |      |   |   |      |   |   |      |   |   |      |   |   |
|--------------|--------------|--------------|--------------|--------------|
|====2-0-----2-|--0-----2-0===|====2-0-----2-|--0-----2-0===|====2-0-----2-|
|--------------|--------------|--------------|--------------|--------------|
                        2                  2    1     2                  3
 f                                            ff (very loud) >.............
                                                         rit (slowing down)

                                                               CII.....
31 |   |   |      |   |   |      |   |   |      |   |   |      |   |   |
|--------------|--------------|--------------|--------------|--------------|
|--------------|--------------|--------------|--------------|--2h3-2h3-5---|
   2 4 2   4 2    2                                                    2
 f                              p

                                               arp            arp
36 |   |   |      |   |   |      |   |   |      |   |   |      |   |   |
   3
   1
                p                              pp (very soft) pp

                                                               CV
41 |   |   |      |   |   |      |   |   |      |   |   |      |   |   |
|--------------|--------------|--------------|--------------|--------------|
|--------------|--------------|--------------|--------------|--------------|
                                 2 4 2 1 1      4
                                ff                           p

   CV
46 |   |   |
|-------------||
|-------------||
 p

notes

hammer-ons and pull-offs have been used for slurs up and slurs down

legend

right hand fingering above tab     left hand fingering below tab
p    - thumb                       1    - index
i    - index                       2    - middle
m    - middle                      3    - ring
a    - ring                        4    - little

h    - hammer on                   CII  - barre on the 2nd fret
=    - note held                   CV   - barre on the 5th fret
p    - pull off                      - natural harmonic on the 7th fret
/    - slide up to next note        - natural harmonic on the 12th fret
arp  - arpeggiate