Mao Morta - Novelos De Paixao Text Guitar Tab

Learn the song with the online tablature player
                             NOVELOS DE PAIXÃO - Mão Morta

It's missing the end of the second part and the riff after that:


e|----------------------------------------------------------------------------------|
B|----------------------------------------------------------------------------------|
G|----------------------------------------------------------------------------------|
D|----------------------------------------------------------------------------------|
A|5--8--5--5--8--5--------------------5--8--5---------------------------------------|
E|------------------8--5--8--5--5--8------------------------------------------------|


e|----------------------------------------------------------------------------------|
B|----------------------------------------------------------------------------------|
G|----------------------------------------------------------------------------------|
D|---------------------------------------------5--------5-------------------------5-|
A|5--8--5--5--8--5--------------------5--8--7-----7--7-----7--5-----5-------5--7----|
E|------------------8--5--8--5--5--8-----------------------------7-----7--7---------|