Maps And Atlases - Artichokes Text Guitar Tab

Learn the song with the online tablature player
All the 12's that are tapped are tapped with the right hand.  All the other
notes that are tapped are tapped with the left hand.  I highly recommend
watching a video of the band playing this before attempting this to fully
understand how to play it, as it is a bit "different".  And I know the tab
is confusing, but it's right

  T        T          T      T      T
  H        H          Q      Q      H
|-------------------|------------------------|
|-------------------|------------------------|
|-0(12)----0(12)----|-0(12)--0(12)--0(12)----|
|-------------------|------------------------|
|-------------------|------------------------|
|-------------------|------------------------|

   T  T  T  T  T  T  T  T T T    T  T   T  T   T  T   T   T
                        |-3-|
   E  E  E  E  E  E  E  S S S    E  E   E  E   E  E   E   E
|-10--7--5--7--5--3--5--3-5-3-|--0-(0)--3-(3)--5-(5)-(5)-(5)----|
|-12----12----12----12--------|-12-----12-----12-----12---------|
|-----------------------------|---------------------------------|
|----12----12----12----12-----|----12-----12-----12------12-----|
|-----------------------------|---------------------------------|
|-----------------------------|---------------------------------|

   T  T    T    T     T    T    T    T T   T
                                     |--3--|
   E  E    E    E     E    E    E    S S   S
|-10--7----5----7-----5----3----5----3-5---3-|
|-12------12---------12--------12------------|
|--------------------------------------------|
|----12--------12---------12--------12-------|
|--------------------------------------------|
|--------------------------------------------|
|
| Gtr II
|  E  S S  S S  S  S  S S  S S  S S  S   S
|--------------------------------------------|
|--7--7-7--7-7-12-12--5-5-------5-5--5---5---|
|--------------------------7-7---------------|
|--------------------------------------------|
|--------------------------------------------|
|--------------------------------------------|

   T    T     T    T     T    T     T   T
   E    E     E    E     E    E     E   E
|--0---(0)----3---(3)----5---(5)---(5)-(5)----|
|-12---------12---------12---------12---------|
|---------------------------------------------|
|------12---------12---------12--------12-----|
|---------------------------------------------|
|---------------------------------------------|
|
|  S S  S  S  S S  S  S  S S  S  S  Q
|---------------------------------------------|
|------------------------8-8--8--8------------|
|------------------7--7-------------7---------|
|--9-9--9--9--9-9-----------------------------|
|---------------------------------------------|
|---------------------------------------------|

     T  T    T    T     T    T    T    T T   T
                                       |--3--|
     E  E    E    E     E    E    E    S S   S
||--10--7----5----7-----5----3----5----3-5---3-|
||o-12------12---------12--------12------------|
||---------------------------------------------|
||-----12--------12---------12--------12-------|
||o--------------------------------------------|
||---------------------------------------------|
|
|    E  S S  S S  S  S  S S  S S  S S  S   S
||---------------------------------------------|
||o-----7-7--7-7-12-12--5-5-------5-5--5---5---|
||---------------------------7-7---------------|
||---------------------------------------------|
||o--------------------------------------------|
||---------------------------------------------|

   T    T     T    T     T    T     T   T
   E    E     E    E     E    E     E   E
|--0---(0)----3---(3)----5---(5)---(5)-(5)---|
|-12---------12---------12---------12--------|
|--------------------------------------------|
|------12---------12---------12--------12----|
|--------------------------------------------|
|--------------------------------------------|
|
|  S S  S  S  S S  S  S  S S  S  S  q
|--------------------------------------------|
|--------------------------------------------|
|------------------7--7--9-9--9--9--9--------|
|--9-9--9--9--9-9----------------------------|
|--------------------------------------------|
|--------------------------------------------|

   T  T    T    T     T    T    T    T T   T
                                     |--3--|
   E  E    E    E     E    E    E    S S   S
|-10--7----5----7-----5----3----5----3-5---3-|
|-12------12---------12--------12------------|
|--------------------------------------------|
|----12--------12---------12--------12-------|
|--------------------------------------------|
|--------------------------------------------|
|
|  E  S S  S S  S  S  S S  S S  S S  S   S
|--------------------------------------------|
|-----7-7--7-7-12-12--5-5-------5-5--5---5---|
|--------------------------7-7---------------|
|--------------------------------------------|
|--------------------------------------------|
|--------------------------------------------|

   T    T     T    T     T    T     T   T
   E    E     E    E     E    E     E   E
|--0---(0)----3---(3)----5---(5)---(5)-(5)-----||
|-12---------12---------12---------12---------o||
|----------------------------------------------||
|------12---------12---------12--------12------||
|---------------------------------------------o||
|----------------------------------------------||
|
|  S S  S  S  S S  S  S  S S  S  S  q
|----------------------------------------------||
|------------------------8-8--8--8------------o||
|------------------7--7-------------7----------||
|--9-9--9--9--9-9------------------------------||
|---------------------------------------------o||
|----------------------------------------------||

     T    T   T  T  T  T   T     T     T   T  T  T  T
     Q    E   E  E  E  E   E     Q     E   E  E  E  Q
||----------------------------|------------------------|
||o-12-------12----12-----12--|-------12-----12--------|
||----------------------------|-12-----------------12--|
||-------12-----12----12------|-----------12----12-----|
||o-10--(10)--------7-10-(10)-|-10---(10)--------7-10--|
||------------7-10------------|------------7-10--------|
|
     B           B               E E   E   E  B
||----------------------------|------------------------|
||o-12-----------0------------|------------------------|
||----------------------------|-12-7---9---------------|
||----------------------------|-----------14--9--------|
||o---------------------------|------------------------|
||----------------------------|------------------------|

   T   T   T  T  T  T   T     T   T   T   T   T
   Q   E   E  E  E  S   E.    E   E   E   E   H
|-12--12-----12----12-(12)-|-----12------12---------||
|--------------------------|-----------------------o||
|---------12----12---------|-12------12------12-----||
|--------------------------|------------------------||
|--7--(7)-----5--7--5---7--|-(7)-(7)-(7)-(7)-(7)---o||
|----------7---------------|------------------------||
|
   B          B               E   E   B
|--------------------------|------------------------||
|-12----------0------------|-----------------------o||
|--------------------------|-12---7---9-------------||
|--------------------------|------------------------||
|--------------------------|-----------------------o||
|--------------------------|------------------------||

Duration Legend

W - whole; H - half; Q - quarter; E - 8th; S - 16th; T - 32nd; X - 64th; a - acciaccatura
+ - note tied to previous; . - note dotted; .. - note double dotted
Uncapitalized letters represent notes that are staccato (1/2 duration)
Irregular groupings are notated above the duration line
Duration letters will always appear directly above the note/fret number it represents the
duration for.  Duration letters with no fret number below them represent rests.  Multi-
bar rests are notated in the form Wxn, where n is the number of bars to rest for.  Low
melody durations appear below the staff

 h   - hammer-on
 p   - pull-off
 b   - bend
 pb  - pre-bend
 r   - bend release (if no number after the r, then release immediately)
 /\  - slide into or out of (from/to "nowhere")
 s   - legato slide
 S   - shift slide


  - natural harmonic
[n]  - artificial harmonic
n(n) - tapped harmonic
 ~   - vibrato
 tr  - trill
 T   - tap
 TP  - trem. picking
 PM  - palm muting
\n/  - tremolo bar dip; n = amount to dip
 \n  - tremolo bar down
 n/  - tremolo bar up
/n\  - tremolo bar inverted dip
 =   - hold bend; also acts as connecting device for hammers/pulls
 <> - volume swell (louder/softer)
 x   - on rhythm slash represents muted slash
 o   - on rhythm slash represents single note slash

Misc Legend

 |  - bar
||  - double bar
||o - repeat start
o|| - repeat end
*|  - double bar (ending)
 :  - bar (freetime)
 $  - Segno
 &  - Coda
Tempo markers -
 
   = BPM(8/16=s8/s16), where s8 = swing 8ths, s16 = swing 16ths