Maps And Atlases - Pigeons Text Guitar Tab

Learn the song with the online tablature player
"Pigeon"
by Maps and Atlases

Guitar

Riff 1

e|----------7--5--------------|
B|----------------5-----------|
G|-------------5--------------|
D|---0h4h5--------5-----------|
A|----------------------------|
E|----------------------------|

Riff 2

e|-----------------10---------|
B|-----3-5-7---7-7------------|
G|---5-5-5-5---5--------------|
D|---------------7------------|
A|---5-----5-5-5--------------|
E|----------------------------|

Riff 3

e|-------2------------|
B|---5---3------------|
G|---0---2------------|
D|-------0------------|
A|---3----------------|
E|--------------------|

Riff 4

e|---------------------------------------------------------------------------------|
B|-15-15-15--12-12-12--------------------------------------------------------------|
G|--------------------14-14-14-12-12-12-14-14-14-12-12-12-14-14-14-12-12-12--------|
D|--------------------------------------------------------------------------12-14--|
A|---------------------------------------------------------------------------------|
E|---------------------------------------------------------------------------------|

Bass Guitar

Riff 1
To be played with

G|-----------------------------|
D|-----------------------------|
A|-------5--3----------5--3----|
E|-3--3-----------3--3---------|

Riff 3

G|----------|
D|----------|
A|-3---5----|
E|----------|