Marble Sounds - Smoking Was A Day Job Text Guitar Tab

Learn the song with the online tablature player
                             Smoking Was A Day Job - Marble Sounds

 i dont have the picking 100% right but you can take this as a pointer

INTRO
synth)
                                      pre-chorus the synth does this
e|--2--------------2----------------|---2--------------2---------6----7-----|
B|---------4---------------2------0-|----------4----------------------------|
G|----------------------------------|---------------------------------------|
D|----------------------------------|---------------------------------------|
A|----------------------------------|---------------------------------------|
E|----------------------------------|---------------------------------------|

           INTRO guitar

e|------------------------------------------------|
B|---------0------0---------0---------2p0---------|
G|-----3------3-----3----------3--3--------3------|
D|--1----1------1--------4----------4---------4---|
A|-2----------------------------------------------|
E|------------------------------------------------|

                then  ...............repeat. with a little variation
e|-------------------------------------0----------|
B|----------0------0--------0---------------------|
G|------3------3-----3---------3--3---------------|
D|---1----1------1--------4---------4-------------|
A|0h2---------------------------------------------|
E|------------------------------------------------|

sorry, but i dont know the chorus. my laptop speakers are junk, and i seemed to misplace
headphones.. but it DOES have something to do with this. let me know if you figure it
:)

e|----0---0----------0-----0---------------------------------|
B|--5---5---5------5-----5-----------------------------------|
G|-------------3h4-----4-------------------------------------|
D|-----------------------------------------------------------|
A|--EXAMPLE, not the correct way to play chorus--------------|
E|-----------------------------------------------------------|

                    OUTRO
e|-------2----------2----------2-------4p2---------|
B|-------0----------0----------0-------------------|
G|--3h4--------3h4--------3h4----------------------|
D|-------------------------------------------------|
A|-------------------------------------------------|
E|-------------------------------------------------|

|
| h   hammer-on
| p   pull-off
|