Marc Ford - 1000 Ways Text Guitar Tab

Learn the song with the online tablature player
Marc Ford
"1000 Ways"
Weary and Wired

Intro
e------------------I-------------------|
B------------------I-------------------|
G------------------I-------------------|
D-7----------------I-7-----------------| (repeat)
A---9-x-7-9--------I---9-x-7-9---------|
E------------5-5-2-I-------------5-5-2-|

VS
e------------------I--------------I------------------I-------------------|
B------------------I--------------I------------------I-------------------|
G------------------I--------------I-7----------------I-7-----------------|
D-7----------------I-7------------I---9-x-7-9--------I---9-x-7-9---------|
A---9-x-7-9--------I---9--x-------I------------5-5-2-I-------------------|
E------------5-5-2-I---------5--6-I------------------I-------------5-5-2-|

e------------------I----------------|
B------------------I----------------|
G------------------I----------------|
D-7----------------I-7--------------|
A---9-x-7-9--------I---9-x-7-9------|
E------------5-5-2-I------------5-5-|

Chs:
"There's a 1000...  A 1000 ways...
  E                 B
e-----------------I-------------------I------------------I------------------|
B-----------------I-------------------I------------------I------------------|
G-1-1-1-1---------I-8-8-8-8-----------I------------------I------------------|
D-2-2-2-2---------I-9-9-9-9-----------I-7----------------I-7----------------|
A-2-2-2-2---------I-9-9-9-9-----------I---9-x-7-9--------I---9-x-7-9--------|
E-0-0-0-0---------I-7-7-7-7--/9-7-5-7-I------------5-5-2-I------------5-5-2-|

Repeat VS & Chs - walk up to bridge on A, Bb

Bridge
A D / A D / A D / E turnaround back to VS: E-/9-7-5-7-

Those are the main parts