Marc Ford - Hell Or Highwater Text Guitar Tab

Learn the song with the online tablature player
Artist: Marc Ford
Song: Hell or Highwater
Album: It's About Time

Intro
E------------------------------------------------------------------------------|
B--9------9-9------------9--x--10-10--9--9-x-----------------------------------|
G--9------9-9------11-11-9--x--11-11--9--9-x-----------------------------------|
D--9------9-9------11-11-9--x--11-11--9--9-x-----------------------------------| x2
A-----/11-----11\----------------------------9--9-11--9-9-11--9--9-11--9-9-11--|
E--------------------------------------------7--7--7--7-7--7--7--7--7--7-7--7--|

Verse
E---------------------------------------------------------------------|
B----9----------9--x--10-10--9--9-x-----------------------------------|
G----9----11-11-9--x--11-11--9--9-x-----------------------------------|
D----9----11-11-9--x--11-11--9--9-x-----------------------------------| x2
A----7------------------------------9--9-11--9-9-11--9--9-11--9-9-11--|
E--0--------------------------------7--7--7--7-7--7--7--7--7--7-7--7--|

Pre-Chorus
A       E
A       E
A  A/G#  A/F#  E  B

Chorus
E       F#5  G#5  B x4