Marc Seal - Above The Clouds Text Guitar Tab

Learn song with the online tabulature player
This is a cool song to play. This much didn't take me long to learn, so if it isn't
right its because i didn't put much time into it. enjoy and please rate my tab.

-------------------7-12----------|
------8-10-7-----8---------------|
----9--------7-9-----------------|
--9------------------------------|
---------------------------------|
---------------------------------|


-17-15---------------------------|
-------17-19-15-17---------------|
-------------------16-p-14-h-16--|
---------------------------------|
---------------------------------|
---------------------------------|

Just repeat this 3x