Marco Beltrami - 310 To Yuma Text Guitar Tab

Learn the song with the online tablature player
No body has tabbed this piece and its a shame cus its realy cool. please make better
in you can. this is just to get started on this song.

s=slide to the next note

INTRO

E||-------------------|------------------|-------------------|
B||-------------------|------------------|-------------------|
G||-------------------|------------------|-------------------|
D||------6---9---6----|-----8----6-------|------6----9----6--|
A||----6--------------|---6-----4--------|----6--------------|
E||--4----------------|--6-----4---------|--4----------------|

   |-----------------------||
   |-----------------------||
   |-----------------------||
   |------7------7---------|| x 2(start at beginning)
   |----5------5-----------||
   |--5------5-------------||

CHORUS

E||-------------------|------------------|-------------------|
B||-------------------|------------------|-------------------|
G||---------8-6-8-----|-6--8--9----------|-------8-6-8-------|
D||--6----------------|------------------|--6----------------|
A||-------------------|------------------|-------------------|
E||-------------------|------------------|-------------------|

 |------------------|------------------|-------------------|
 |------------------|------------------|-------------------|
 |--6---4----6------|------8-6-8-------|-8---9----13s---16s|
 |------------------|-6----------------|-------------------|
 |------------------|------------------|-------------------|
 |------------------|------------------|-------------------|

 |-------------------|------------------|
 |-------------------|------------------|
 |--18s---13---------|---16-----15------|
 |-------------------|------------------| x1
 |-------------------|------------------|
 |-------------------|------------------|

 Slight Variation in theme(play this twice then go back to the Chorus)

E||-------------------|------------------|-------------------|
B||-------------------|------------------|-------------------|
G||---------8-6-8-----|-6--8--9----------|-------8-6-8-------|
D||--6----------------|------------------|--6----------------|
A||-------------------|------------------|-------------------|
E||-------------------|------------------|-------------------|

 |------------------|------------------|----------------|
 |------------------|------------------|----------------|
 |--6---4s---6------|------8-6-8-------|-8---9----13s---|
 |------------------|-6----------------|----------------|
 |------------------|------------------|----------------|
 |------------------|------------------|----------------|

 |------------------|------------------|-------------------|
 |------------------|------------------|-------------------|
 |-------8-6-8------|--16----15---11---|-------------------|
 |------------------|------------------|-------------------| x2
 |--6---------------|------------------|-------------------|
 |------------------|------------------|-------------------|