Marcy Playground - All The Lights Went Out Text Guitar Tab

Learn the song with the online tablature player
Artist: Marcy Playground
Album: Shapeshifter
Song: All The Lights Went Out

A
e:|---------------------------------|
B:|---------------------------------|
G:|---------------------------------|
D:|---6---6---6---7---7---7---7---7-|
A:|---------------------------------|
E:|-0---0---0---0---0---0---0---0---|

e:|---------------------------------|
B:|---------------------------------|
G:|---------------------------------|
D:|---4---4---4---6---6---6---6---6-|
A:|---------------------------------|
E:|-0---0---0---0---0---0---0---0---|

B
e:|---------------------------------|
B:|---------------------------------|
G:|---------------------------------|
D:|---6---6---6---6---6---6---6---6-|
A:|-4---4---4---4---4---4---4---4---|
E:|---------------------------------|

e:|---------------------------------|
B:|---------------------------------|
G:|---------------------------------|
D:|---7---7---7---7---7---7---7---7-|
A:|-5---5---5---5---5---5---5---5---|
E:|---------------------------------|

e:|---------------------------------|
B:|---------------------------------|
G:|---------------------------------|
D:|---------------------------------|
A:|---7---7---7---7---7---7---7---7-|
E:|-5---5---5---5---5---5---5---5---|

C
e:|---------------------------------|
B:|---------------------------------|
G:|---------------------------------|
D:|---6---6---6---6---6---6---6---6-|
A:|---------------------------------|
E:|-0---0---0---0---0---0---0---0---|

D
e:|---------------------------------|
B:|---------------------------------|
G:|---------------------------------|
D:|---6---6---6---7---7---7---7---7-|
A:|---------------------------------|
E:|-0---0---0---0---0---0---0---0---|

E       E2
e:|-5--|-------------------------------------------------------|
B:|-5--|-------------------------------------------------------|
G:|-6--|-------------------------------------------------------|
D:|-7--|-----6-5-h7p6p5h6p5h6\2--repeat 4 times-in first round-|
A:|-7--|---7---------------------and 2 times in second round---|
E:|-5--|-0-----------------------------------------------------|

Form:

Intro
AA

Verse
AABC

Bridge
AA

Verse
AABC

Bridge
DDDDCC

Chorus
E-E2 Repeat

Bridge
AA

Verse
BC

Bridge
DDCC

Chorus
E-E2 Repeat

Outro
AAB

It ends with what I think is something like:

A:|---7-----------
E:|-0---0---------