Marduk - Darkness Breeds Immortality Text Guitar Tab

Learn the song with the online tablature player
Band: Marduk

Album: Those Of The Unlight

Song: Darkness Breeds Immortality

Version 1.0 - 02/09/2007

.  - palm mute           /  - slide up to
\  - slide down to       ~  - vibrato
h  - hammer on           b  - Bend
p  - pull off            Suffixes for bend
t  - tap                 f  - full bend    h - half bend
ph - pinched harmonic    q  - quarter bend t - tap bend
*  - see comment         ^  - Hold bend    r release bend
x  - Stuccatto           ~  - vibrato bend
,  - slight palm mute    () - ghost note, sustained note
"  - tremolo note        <> - Trill

Riff 1

|-------------------------------------------------------------------|
|-------------------------------------------------------------------|
|-------------------------------------------------------------------|
|-9--9--10--10---10--10---11--11--11--11---12--12--12--12-----------|
|-7--7--7---7----8---8----8---8---9---9----9---9---10--10-----------|
|-------------------------------------------------------------------|

|-------------------------------------------------------------------|
|-------------------------------------------------------------------|
|-------------------------------------------------------------------|
|-13--13-\----------------------------------------------------------|
|-10--10-\----------------------------------------------------------|
|-------------------------------------------------------------------|

Riff 2

|-------------------------------------------------------------------|
|-------------------------------------------------------------------|
|-------------------------------------------------------------------|
|-9--9--9--9--10--10--10--10--10--10--10--10--11--11--11------------|
|-7--7--7--7--7---7---7---7---8---8---8---8---8---8---8-------------|
|-------------------------------------------------------------------|

|-------------------------------------------------------------------|
|-------------------------------------------------------------------|
|-------------------------------------------------------------------|
|-11--11--11--11--11--12--12--12--12--12--12--12--12--13------------|
|-8---9---9---9---9---9---9---9---9---10--10--10--10--10------------|
|-------------------------------------------------------------------|

|-------------------------------------------------------------------|
|-------------------------------------------------------------------|
|-------------------------------------------------------------------|
|-13--13--13-\------------------------------------------------------|
|-10--10--10-\------------------------------------------------------|
|-------------------------------------------------------------------|

Riff 3

|-------------------------------------------------------------------|
|-------------------------------------------------------------------|
|-------------------------------------------------------------------|
|-------------------------------------------------------------------|
|-12-11-11-11--12-11-11-11--12-11-11-11--8--------------------------|
|-------------------------------------------------------------------|

Riff 4

|-------------------------------------------------------------------|
|-------------------------------------------------------------------|
|-------------------------------------------------------------------|
|-------------------------------------------------------------------|
|-12-11-11-11--12-11-11-11--12-11-11-11--8-8-8-8--------------------|
|-------------------------------------------------------------------|

Riff 5

|-------------------------------------------------------------------|
|-------------------------------------------------------------------|
|-------------------------------------------------------------------|
|-------------------------------------------------------------------|
|-9------6---7----(7)-----------------------------------------------|
|-------------------------------------------------------------------|

Riff 6

|-------------------------------------------------------------------|
|-------------------------------------------------------------------|
|-----0-------0-------0-----0---0-----------------------------------|
|---7-------4-------5-----5-----------------------------------------|
|-9-----9-6-----6-7-----7-----7-------------------------------------|
|-------------------------------------------------------------------|

Riff 7

|-------------------------------------------------------------------|
|-------------------------------------------------------------------|
|-------------------------------------------------------------------|
|-7------4---5----(5)-----------------------------------------------|
|-9------6---7----(7)-----------------------------------------------|
|-------------------------------------------------------------------|

Riff 8

|-------------------------------------------------------------------|
|-------------------------------------------------------------------|
|-------------------------------------------------------------------|
|-9--9--9--9----------------9---------------------------------------|
|-7--7--7--7---8--8--8--8---7---------------------------------------|
|--------------6--6--6--6-------------------------------------------|

Riff 9

|-------------------------------------------------------------------|
|-------------------------------------------------------------------|
|-------------------------------------------------------------------|
|-9-9-9-9----------9-9-9-9-11-11-12-12-11-11------------------------|
|-7-7-7-7--8-8-8-8-7-7-7-7-9--9--10-10-9--9-------------------------|
|----------6-6-6-6--------------------------------------------------|

Riff 10

|-------------------------------------------------------------------|
|-------------------------------------------------------------------|
|-------------------------------------------------------------------|
|-------------------------------------------------------------------|
|----------7-7-8-8----------5-5-6-6---------------------------------|
|-5-5-5-5----------3-3-3-3------------------------------------------|

Riff 11
Under Riff 10)

|-------------------------------------------------------------------|
|-------------------------------------------------------------------|
|-------------------------------------------------------------------|
|-7-7-7-7-9-9-10-10-9-9-9-9-9-9-10-10-9-9---------------------------|
|-------------------------------------------------------------------|
|-------------------------------------------------------------------|

Riff 12

|-------------------------------------------------------------------|
|-------------------------------------------------------------------|
|-------------------------------------------------------------------|
|---------------------------7--7--7--7--10--10--12--12--------------|
|-7--7--7--7--10--10--9--9--5--5--5--5--8---8---10--10--------------|
|-5--5--5--5--8---8---7--7------------------------------------------|

|-------------------------------------------------------------------|
|-------------------------------------------------------------------|
|-------------------------------------------------------------------|
|-------------------------------------------------------------------|
|-7--7--7--7--10--10--9--9--5--7--8--7--5--7--8--7------------------|
|-5--5--5--5--8---8---7--7------------------------------------------|

Riff 13

|-------------------------------------------------------------------|
|-------------------------------------------------------------------|
|-------------------------------------------------------------------|
|-----------7---10-12-----------------------------------------------|
|-7--10--9--5---8--10---7--10--9--5--7--8--7--5--7--8--7------------|
|-5--8---7--------------5--8---7------------------------------------|

END