Marduk - Obedience Unto Death Text Guitar Tab

Learn song with the online tabulature player
"Obedience" as performed by Marduk
 on their 2000 mini "Obedience"

Latest version from this transcription always available from
www.theblackdeath.cjb.net

Transcribed by Lord Upir 31 August 2000

Normal tuning (EADGBe)

tp  = tremolo picking

riff 1, tp
e|---------------------------------------------|
B|---------------------------------------------|
G|-----------------2-5-2-----------------5-4---|
D|-3----2-3----2-3-0-3-0-3----2-3----2-3-3-2-2-|
A|-1----0-1----0-1-------1----0-1----0-1-----0-|
E|---------------------------------------------|

riff 2, tp
e|--------------------------------------------------------------|
B|--------------------------------------------------------------|
G|--------------------------------------------------------------|
D|-3----4----------3----4---------------------------------------|
A|-3----4----------3----4---------------------------------------|
E|-1----2----------1----2---------------------------------------|

chorus riff
e|------------------------|
B|------------------------|
G|------------------------|
D|-3-3-3-3----------------|
A|-1-1-1-1----------------|
E|---------2-1-2-4-2-4----|


riff 3
e|---------------------------|
B|---------------------------|
G|---------------------------|
D|---------------------------|
A|-8--6--8--9--11--9--8--9---|
E|-6--4--6--7---9--7--4--7---|


riff 4, tp
e|----------|
B|----------|
G|----------|
D|----------|
A|-8----9-6-|
E|-6----7-4-|

riff 5, tp
e|------------------------------|
B|------------------------------|
G|------------------------------|
D|-3---4---7----3---4---7-6-4---|
A|-1---2---5----1---2---5-4-2---|
E|------------------------------|