Marduk - Samhain Text Guitar Tab

Learn song with the online tabulature player
-------------------------------------------------------------------------------
                             Samhain - Marduk
-------------------------------------------------------------------------------
Tabbed by: Roow
Email: rvankleeff@hotmail.com

Tuning:

e|-------------------------------------------------------------------------|
B|-------------------------------------------------------------------------|
G|-----------------5--6--5--8----------------------------------------------|
D|--7--8--7--6-----5--6--5--8----------------------------------------------|
A|--7--8--7--6-----7--8--7--10---------------------------------------------|
E|--5--6--5--8-------------------------------------------------------------|

that's what i heard...