Margot And The Nuclear So And Sos - Claws Off Chords

 
         
         
         
         
         
1
3
4
2
1
1
5 fr
         
         
         
         
         
X
4
3
1
2
1
3 fr
         
         
         
         
         
X
X
1
2
4
3
         
         
         
         
         
X
X
3
2
1
1
8 fr
         
         
         
         
         
X
1
3
3
3
1
10 fr
         
         
         
         
         
4
3
1
1
1
X

10 fr
         
         
         
         
         
3
2
1
1
1
4
         
         
         
         
         
X
2
3
1
5 fr
         
         
         
         
         
1
3
4
1
1
1
5 fr
         
         
         
         
         
X
X
1
1
1
8 fr
         
         
         
         
         
X
3
2
4
1
2 fr
         
         
         
         
         
X
1
4
4
4
7 fr
         
         
         
         
         
X
1
3
4
2

9 fr
         
         
         
         
         
X
4
3
1
2
X
12 fr
         
         
         
         
         
X
1
3
4
2
1
5 fr
         
         
         
         
         
X
No chord
    
Standard guitar tuning:
E
A
D
G
B
E
No capo
Chords:

F Am

e|----x-----x----------| B|----1-----1----------| G|----2-----2----------| D|----3-----2----------| A|----3-----0----------| E|----x-----x----------|

Intro

x2

F Am F Am

e|-----------------------| B|-----------------------| G|-----------------------|
D|---/88---7~--/88--5~---| A|---/88---7~--/88--5~---| E|---/66---5~--/66--3~---|

Verse 1

FSuperstitious grave rAmobber
F                Am
Keep your claws off me and mine
e|-------------------------|
B|-------------------------|
G|-------------------------|
D|---/88---7~---/88---5~---| A|---/88---7~---/88---5~---| E|---/66---5~---/66---3~---| FLead the part, make 'eAmm sick
F    Am
Set fire to their eyes
e|-------------------------|
B|-------------------------|
G|-------------------------|
D|---/88---7~---/88---5~---| A|---/88---7~---/88---5~---| E|---/66---5~---/66---3~---|

Chorus

e|-----------------------|
B|-----------------------|
G|-55555555--------------|
D|-55555555----88888-----|
A|-33333333----88888-----|
E|-------------66666-----|
If you wanna go... Get lost

F Am F Am

e|---------------------------|
B|---------------------------|
G|---------------------------|
D|--5555555-----8888888888---|
A|--5555555-----8888888888---|
E|--3333333-----6666666666---|
If you wanna stay... Shut up Repeat Intro 1x

Verse 2

FSuperstitious rage moAmnger FKeep your hands ouAmt of my tea
e|-------------------------|
B|-------------------------|
G|-------------------------|
D|---/88---7~---/88---5~---| A|---/88---7~---/88---5~---| E|---/66---5~---/66---3~---| FTell me you love me and Ammake it sweet FGet downAm on your knees
e|-------------------------|
B|-------------------------|
G|-------------------------|
D|---/88---7~---/88---5~---| A|---/88---7~---/88---5~---| E|---/66---5~---/66---3~---|

Chorus

e|-----------------------|
B|-----------------------|
G|-55555555--------------|
D|-55555555----88888-----|
A|-33333333----88888-----|
E|-------------66666-----|
If you wanna go... Get lost

F Am F Am

e|---------------------------|
B|---------------------------|
G|---------------------------|
D|--5555555-----8888888888---|
A|--5555555-----8888888888---|
E|--3333333-----6666666666---|
If you wanna stay... Shut up

Interlude

Slide Guitar solo)

Bridge

e|----------------x---------|
B|----------------x---------|
G|-5~-------------x---------|
D|-5~----8~-------x---------|
A|-3~----8~-------x---------|
E|-------6~-------x---------|
I don't wanna say...Good luck
e|------------------------------------------|
B|-66666666-----555555------------666666----|
G|-77777777-----555555------------777777----|
D|-77777777-----777777-x3---------777777----|
A|-55555555-----777777------------555555----|
E|-55555555-----555555------------555555----|
FSuperstitious gAmrave robber FKeep your cAmlaws off me and...
e|---------------------xxxxx------|
B|---------------------xxxxx------|
G|---------------------xxxxx------|
D|-333-/555-/777-/888--xxxxx------|
A|-333-/555-/777-/888--xxxxx------|
E|-111-/333-/555-/666--xxxxx------|
I'm not gonna say (x3)
e|----------------------------------------------------------------|
B|----------------------------------------------------------------|
G|--55555555----------------------77777777------------------------|
D|--55555555--88888888--77777777--77777777--55555555--88888888----|
A|--33333333--88888888--77777777--55555555--55555555--88888888----|
E|------------66666666--55555555------------33333333--66666666----|
Good luck
e|---------------------xxxxx----------|
B|---------------------xxxxx----------|
G|---------------------xxxxx----------|
D|-333-/555-/777-/888--xxxxx----------|
A|-333-/555-/777-/888--xxxxx----------|
E|-111-/333-/555-/666--xxxxx----------|
What I wanna say (x3)
e|------------------------------------------------------------------|
B|------------------------------------------------------------------|
G|--55555555------------55555555------------------------------------|
D|--55555555--88888888--55555555--88888888--55555555---88888888-----|
A|--33333333--88888888--33333333--88888888--55555555---88888888-----|
E|------------66666666------------66666666--33333333---66666666-----|
Is get fucked...

All Content on this page is the property of the copyright owner of the original composition.