Margot And The Nuclear So And Sos - Disease And Tobacco Free Text Guitar Tab

Learn the song with the online tablature player
e|--------------------------------------------------|
B|--------------------------------------------------|
G|--------------------------------------------------|
D|--5-5-5--5--5-5-5-5---5-5-5-5--5--5-5-5-5---------|
A|--5-5-5--5--5-5-5-5---5-5-5-5--5--5-5-5-5---------|
E|--3-3-3--3--3-3-3-0---0-3-3-3--3--3-3-3-0---------|

e|--------------------------------------------------|
B|--------------------------------------------------|
G|--------------------------------------------------|
D|----7-7-7--7--5--5-5-5----------------------------|
A|----7-7-7--7--5--5-5-5----------------------------|
E|--3s5-5-5--5--0--3-3-3----------------------------|