Margot And The Nuclear So And Sos - On A Freezing Chicago Street Text Guitar Tab

Learn the song with the online tablature player
This should be right on.....Strum pattern at the begtinning is up to you, its easy after
practice it a few times.

e---2--2h3p2--0----------------------------|
b---3--3------3----3---3----3--2--2--2-----|
g---2--2------0-----0---0----0--0--0-------|   X2 INTRO
d-------------0---0---0----2--2--2--2------|
a-------------0-----------2----------------|
E-------------0--3---2---0-----------------|

e---2--2h3p2--0----------------------------|
b---3--3------3----3---3----3--2--2--2-----|
g---2--2------0-----0---0----0--0--0-------|   VERSE (2nd time)
d-------------0---0---0----2--2--2--2------|   end on Em and strum
a-------------0-----------2----------------|   (Em strums with lyric
E-------------0--3---2---0-----------------|    beginning on "took" )

CHORUS

Chords used.....they are placed above the lyric in which you change chords.

  Em   Bm   F

e-0----2------------------------------|
b-0----3------------------------------|
g-0----4----5-------------------------|
d-2----4----5-------------------------|
a-2----2----3-------------------------|
E-0----x----x-------------------------|

                     Em
All those pills you took
            Bm                 Em              F
And we got drunk on cheap red wine in a paper cup

REPEAT VERSE

Em          Bm                  Em            F
And Sarah screamed your every breath is a gift
                Bm            Em                   F
If you weren't so selfish then you might want to live

SONG PROGRESS IS AS FOLLOWS.........

INTRO x2
VERSE x2
CHORUS
DRUM FILL(IN WHICH I STRUM THE STRING WHILE MUTING ALL OF THEM)
VERSE x2

CHORUS
CHORDS ARE SITUATED DIFFERENTLY IN THIS CHORUS AND THE LAST ONE)
DRUM FILL
INTRO x4 OR HOWEVER LONG YOU WANT
VERSE x2
CHORUS

OUTRO
JUST LIKE INTRO)