Maria Mena - Pale People Text Guitar Tab

Learn song with the online tabulature player
Intro:
e|-------0--------|-------4--------|-------0--------|-------0--------|
B|---4------4-----|---2------2-----|---4------4-----|---4------4-----|
G|-4---4-------4--|-3---3-------3--|-1---1-------1--|-----1-------1--|
D|----------------|----------------|----------------|----------------|
A|----------------|----------------|----------------|----------------|
E|----------------|----------------|----------------|----------------|

"I know" 2x
e|-------0--------|-------4--------|-------0--------|-------0--------|
B|---4------4-----|---2------2-----|---4------4-----|---4------4-----|
G|-4---4-------4--|-3---3-------3--|-1---1-------1--|-----1-------1--|
D|----------------|----------------|----------------|----------------|
A|----------------|----------------|----------------|----------------|
E|----------------|----------------|----------------|----------------|

"And somewhere in between" 1x
e|-------0--------|-------4--------|-------0--------|-------0--------|
B|---4------4-----|---4------4-----|---4------4-----|---4------4-----|
G|-4---4-------4--|-1---1-------1--|-4---4-------4--|-1---1-------1--|
D|----------------|----------------|----------------|----------------|
A|----------------|----------------|----------------|----------------|
E|----------------|----------------|----------------|----------------|

And back to the beginning...