Maria Taylor - Lost Time Text Guitar Tab

Learn the song with the online tablature player
I spent a few minutes figuring the start out, but I'm
not sure how to play the rest. Would love someone to
finish it up and figure out the chord names.

Chords:
        A       E       C       E2

--------0-------0-------0-------0--------|
--------1-------1-------1-------0--------|
--------0-------0-------0-------0--------|
--------2-------0-------2-------0--------|
--------0-------2-------3-------2--------|
-----------------------------------------|

Verse
A E C E2
        A E2 C E2

--------------------------------------------------------|
-----1-------------1------------1------------0----------|
--------0---0---------0---0--------0---0--------0---0---|
---2------2------0------0-----2------2-----0------0-----|
-0-------------2------------3------------2--------------|
--------------------------------------------------------|

--------------------------------------------------------|
-----1-------------0------------1------------0----------|
--------0---0---------0---0--------0---0--------0---0---|
---2------2------0------0-----2------2-----0------0-----|
-0-------------2------------3------------2--------------|
--------------------------------------------------------|