Marillion - Out Of This World Text Guitar Tab

Learn song with the online tabulature player
Here is the beatifull song from the album: Less is More.
It is just the intro, but very nice!

E-------------------------0------------------------0------------------------|
B------------3-------------------------2-----------------------0------------|
G---------4------------4------------4-----------4-----------4---------------|
D------4------------4------------4-----------4-----------4------------------|
A---2------------2------------0-----------0---------------------------------|
E-----------------------------------------------------3---------------------|

E---------------------------------------------------------------------------|
B------------0--------------0--------------0--------------------------------|
G---------4--------------4-------------4------------------------------------|
D------4--------------4-------------4---------------------------------------|
A---------------------------------------------------------------------------|
E---3-------------3-------------3-------------------------------------------|

Please reating me.

Thank you!