Marillion - This Train Is My Life Text Guitar Tab

Learn the song with the online tablature player
This song is not to difficult.
Marillion - This train is my life
from the album: Happiness is the road (Essence)

E---------------------------------------------------------------------------|
B-----------------------------------------------------------1---------------|
G-----------1-----------3---1---------------2---1---------------0-----------|
D-------3-------3---4-----------3-------3-----------------------------------|
A---1-------------------------------4-------------------3-------------------|
E---------------------------------------------------4-----------------------|

E-----------------------------------------------------------4---------------|
B---------------------------------------------------------------------------|
G-----------1-----------3---1---------------2---1---------------0-----------|
D-------3-------3---4-----------3-------3-----------------------------------|
A---1-------------------------------4-------------------3-------------------|
E---------------------------------------------------4-----------------------|

Please rating me, or send a message.
Good luck!
Rockersguitar33