Marilyn Manson - Doll-dagga Buzz-buzz Ziggety-zag Text Guitar Tab

Learn the song with the online tablature player
                        DOLL DAGGA BUZZ BUZZ ZIGGETY ZAG - Marilyn Manson

main riff x2
e|-------------------------------------|
B|-------------------------------------|
G|-------------------------------------|
D|-2---2--2--2-55-22-55-22-5-5-5-5-5-2-|
A|-2---2--2--2-55-22-55-22-5-5-5-5-5-2-|
E|-2---2--2--2-55-22-55-22-5-5-5-5-5-2-|

guitar silent for verse

verse 2
e|---------------------------------------------|
B|---------------------------------------------|
G|---------------------------------------------|
D|-2----2-55-2----22-2-55-2----2-55-2----2-5-5-|
A|-2----2-55-2----22-2-55-2----2-55-2----2-5-5-|
E|-2----2-55-2----22-2-55-2----2-55-2----2-5-5-|

chorus 1 x2

e|--------------------------------------------------|
B|--------------------------------------------------|
G|--------------------------------------------------|
D|--------------------------------------------------|
A|-2-24-42-24-42-24-42-24-42-24-42-24-42-24-42-2222-|
E|-2-22-22-22-22-22-22-22-22-22-22-22-22-22-22-2222-|
   x xx xx xx xx xx xx xx xx xx xx xx xx xx xx xxxx

play this over the second "chorus 1" x2
e|-----------------------------------------|
B|-----------------------------------------|
G|-----9-9-----10-10-----11-11-------12-12-|
D|-----------------------------------------|
A|-7-7-----8-8-------9-9-------10-10-------|
E|-----------------------------------------|

pre-chorus x2
e|--------------------------------------------------------------------------
B|--------------------------------------------------------------------------
G|--------------------------------------------------------------------------
D|-9-99-99-99-99-99-99-99-98-88-88-88-88-88-88-88-8-5-55-55-55-5-7-77-77-77-
A|-9-99-99-99-99-99-99-99-98-88-88-88-88-88-88-88-8-5-55-55-55-5-7-77-77-77-
E|-9-99-99-99-99-99-99-99-98-88-88-88-88-88-88-88-8-5-55-55-55-5-7-77-77-77-

e|------------------------|
B|------------------------|
G|------------------------|
D|-7----------------------|
A|-7----------------------|
E|-7-2-5-2-5-2-22-22-22-2-|

main riff x2
verse 2 x2
pre-chorus x2
main riff x2

guitar solo
x2
e|----------------------------------|--------------------------------------|
B|----------------------------------|--------------------------------------|
G|-7-77-----------------------------|-7-77---------------------------------|
D|----------------------------------|--------------------------------------|
A|-------------4-----4------4-------|-------------4-----4------4-4-4-4-----|
E|------2-22-2---x-x----x-x---x-x-x-|------2-22-2---x-x----x-x---------x-x-|

play over the second time of above:
x2
e|------------------------|
B|------12----------------|
G|-9-12-14^(16)~~~-9-12-9-|
D|------------------------|
A|------------------------|
E|------------------------|

synth solo

x2
e|-----------------------------------------|
B|-----------------------------------------|
G|-----9-9-----10-10-----11-11-------12-12-|
D|-----------------------------------------|
A|-7-7-----8-8-------9-9-------10-10-------|
E|-----------------------------------------|

pre-chorus

bridge x2
e|-------------------------------------|
B|-------------------------------------|
G|---3-3-----3-2-0-2-0-----------------|
D|---------------------2----5-5-2--2-2-|
A|-------------------------------------|
E|-2------2---------------2------------|

end:
e|-------|
B|-------|
G|-------|
D|-----2-|
A|-----2-|
E|-2~--2-|

| /  slide up
| \  slide down
| h  hammer-on
| p  pull-off
| ~  vibrato
| +  harmonic
| x  Mute note